Robinson T. Savage, Sr.
of
Accomack Co., Virginia, Sussex Co., Delaware
and
Allegany - Garrett Counties, Maryland

Find here a few ascendants and descendants of this
Early Pioneer of Garrett County, Maryland











NOTE:  This work is intended to supplement the book, SAVAGE IS MY NAME, by R. Blair Savage. The information in SAVAGE IS MY NAME has been carefully
documented, as described in the book, however much of the information in the following chart was put together with contributions from a number of other Savage family
researchers and I have found several errors. Therefore, and I cannot overemphasize this; I cannot give my personal assurance of accuracy. This chart should be used
only as a guide and the authenticity of the information contained herein, about specific individuals, should be privately documented before one relies on it to construct an
accurate family history. I have underlined the names of those who have contributed their family information and I have also listed this group at the end of the chart.
Where brackets [  ] are used, I am indicating an undecipherable word or uncertainty as to spelling. Where part of a name is unknown I have indicated as; “_____”. For
example;  _____  Savage, where the given name is unknown. No effort is made here to trace the ancestry of spouses who married into the Savage family. Tracking the
Savage family alone is a huge endeavor so I will leave the history of the spousel families to those descended from them. Garrett County was formed from Allegany
County in 1872. Any reference to a birth or death in Garrett County before that time should read, Allegany County. If you are reading this on hard copy you may view a
recent version on the internet at: http://www.savageancestry.com
Those who are presumed to be living have not been included without the request of the donor and beginning in 2013 I will no longer include any persons in generations
#12 and later.
.............................................................................................................................................................................................................................................................................................................................................................................




Ascendants of Robinson T. Savage, Sr:
(Antecedents, Forebears, Forefathers, Primogenitors)

1st. Generation: Thomas Savage, Sr.  Arrived in the Virginia colony by 1632 and settled on the Eastern Shore.  He died in 1654 in Northampton County, Virginia.
---- Wife: Rebecca _____
2nd. Gen: Thomas Savage, Jr.  b. 1646 Northampton Co., Virginia.  d. 1721 Northampton Co.      

3rd. Gen: Robinson Savage, Sr.  b. 1699 Northampton Co.  d. 1774 Accomack Co., Virginia.       

4th. Gen: Robinson Savage, Jr.  Probably born prior to 1723 Northampton County, Virginia. Relocated to
Accomack Co. Virginia.  Relocated to Sussex Co. Delaware 1779,  d. 1786-93        


5th. Gen: Robinson T. Savage, Senior. ( I do not identify this Robinson as “III” because of the known middle initial, T, which may have been used by Robinson, Sr. and
Robinson, Jr., but I have no proof that it was.  I assume the initial was for, “Thomas”. Robinson T. named a son, Robinson T. and I have designated the two of them, Sr.
and Jr.) Robinson T. Savage had two older sisters; Margaret “Peggy” Savage Coleman (John) and Nancy Savage Argo (William).   -RBS-   
Born 1774, Accomack Co. Va. Relocated with family to Sussex Co. Del. in 1779. Relocated to Allegheny Co., Md. 1787-93, on Dry Run, just north of Cumberland. In
1796 he relocated to western Allegheny County at Blooming Rose, along Buffalo Run. He died there in the 1830’s.
----Wife: Mary ______
Robinson and Mary had at least eight children; Lemuel, Evan, Robinson T. Jr., John R., Amos, Nancy, and two unknown females. This chart begins with the sixth
generation son, Lemuel Savage:
                                                         
                                                                                                                                         
----6th. Generation: Lemuel Savage   b. 10-15-1793  Al. Co., Md -- d. 8 or 12-16-1872 Al. Co., Md.    
--------Wife: Mary Catherine Casteel   b. 6-25-1792 -- d. 4-27-1864           
-------- 7th. Gen: Nelson Savage b. 3-11-1818 Al. Co. -- d. 1892     
------------Elizabeth White 1820 -- 1859
------------8th. Gen: Mary Savage abt 1851 (info on children from Jeffery Fowler)
------------8: Amanda Savage abt 1853
------------8: Isabella Savage 3-29-1855
------------8: Tracy Savage abt 1857
------------8: Elizabeth Savage abt 1859
--------7: Israel “Ezra” Savage  2-14-1824 Al. Co. -- 8-12-1906
------------Mariah Benson  Mar, 1825  (however, age given as, 30, in 1860 census) (1900 census reports she had 11 children)
------------8: Ellen or Elma Savage 11-11-1848 (Joyce Glover lists as; Alma. Joyce gives some specific birth dates on this generation.)
------------8:  Preston Savage  10-7-1850 -- 6-28-1912  
----------------Lucinda Fearer July 1850
----------------9: Samuel Jackson Savage, 1874 -- 1957 (per Erica Sisler). (Mel Fike shows as Samuel Jr. and married to, Daisy, born 1881 and with a daughter, Minnie
P., born 1898).
--------------------1st. wife; Jane Uphold, b. 1880 (per Jeffery Fowler. He says Sarah Kelly was second wife.)
--------------------10: William Ray Savage 4-15-1902. (per Jeffery Fowler).
-------------------------Cora Edith Ault 5-16-1912.
-------------------------11: Junior Ray Savage 10-3-32 - 9-4-2008 (Per Jean Siegrist)
------------------------------Ada Florence ______
------------------------------12: Timothy Ray Savage 1-31-1959
------------------------------------Cheryl Lynn ______
------------------------------------13: Timothy Ray Savage, Jr. 6-15-1977
------------------------------------------Melissa Ann ______
-----------------------------------------14: Larissa May Savage 7-29-2000
-----------------------------------------14: Hunter Rimington Savage 5-12-2002
-----------------------------------------14: Skylie Amber Savage 5-1-2005
-----------------------------------------14: Mekelle Jaden Savage 7-27-2007
------------------------------------13: Kevin Eugene Savage 3-3-1979
-----------------------------------------Angela Jean ______
-----------------------------------------14: Alexis Sue Savage 4-25-2004
-----------------------------------------14: Walker Ray Savage 9-26-2006
------------------------------------13: Nickolas Wayne Savage 12-19-1985
------------------------------------13: Kady Lynnette Savage 6-24-1990
--------------------2nd. Sarah Elizabeth Kelly 7-21-1890 -- 1966 (per Erica Sisler and Jeff Fowler).
--------------------10: Minnie P. Savage Nov. 1898
--------------------10: Cecil Isaih Savage
-------------------------Norma Xenia Davis, died 1998
-------------------------11: Norma Eloise Savage Cosner Sisler
------------------------------12: Erica Sisler
----------------9: Noah Savage 3-30-1877 – 11-16-1949
--------------------Sarah Catherine Sliger 9-25-1884 – 2-5-1965
--------------------10: Chancey Arthur Savage 7-23-1914 – 5-22-42
-------------------------Wilda Margarite Jordan 4-25-23 – 3-25-94
-------------------------11: Frederick Arthur Savage 3-7-42
------------------------------Sandra Lee Koontz 9-6-45
------------------------------12: Robin Lynette Savage 5-2-65
--------------------10: Betty Josephine Savage 12-21-26 – 7-9-04
-------------------------Virgil Enis Knotts 12-27-21 –5-15-65
-------------------------11: LeRoy Milton Savage 3-20-45
------------------------------Patty Taylor 7-10-50
------------------------------12: Douglas Milton Savage 10-19-70
----------------------------------Not Married
----------------------------------13: Brittany Dawn Savage 1-9-90
------------------------------12: Brenda Lee Savage 2-13-72
-----------------------------------Patrick Jones 11-19-68
-----------------------------------13: Victoria Lynn Jones 3-20-90
-----------------------------------13: Amanda Rae Jones 3-24-92
-----------------------------------13: Tyler James Jones 3-13-93
------------------------------12: Leroy Milton Savage Jr. 7-13-73
-----------------------------------Not Married
-----------------------------------13: Cassandra Danielle Savage 4-29-91
-------------------------11: Bonnie Jean Knotts 5-2-47
----------------------------- Allen Gale Travis 9-3-46
-----------------------------12: Richard Allen Travis 6-17-69
----------------------------------Not Married
----------------------------------13: Michael Allen Travis 10-20-93
-----------------------------12: Dianna Lynn Travis 5-29-71
-----------------------------12: Lisa Ann Travis 7-4-74
-------------------------11: Virgil Lee Knotts 10-9-53
------------------------------Bessie Taylor
------------------------------12: Michelle Lynn Knotts 5-21-73
----------------------------------13: Kayla Christine Knotts 4-17-90
----------------------------------13: Megan Nicole Knotts 7-13-92
-------------------------11: Randell Linn Knotts 1-27-59
------------------------------Angela Lynn Friend 12-5-64
------------------------------12: Bryton Gregory Knotts 8-8-94
------------------------------12: Crystal Lee Knotts 11-4-82
------------------------------12: Joshua Allen Knotts 11-4-82
------------------------------12: Chasity Dawn Knotts 11-7-84
--------------------10: William Russell Savage 3/28/1918 – 9/10/2001 Albright. WV
-------------------------Erma Evelyn Jordan 3/3/1921 – 8/20/1998 (from Crellin, MD)
-------------------------11: William Russell Savage, Jr. 10/15/40
------------------------------Phyllis Jean Christopher 11/22/43
------------------------------12: Mark Brent Savage 9/10/63
----------------------------------1st Tammy Lynn Leggett
--------------------------------- 13: Michael Brent Savage 4/25/86
----------------------------------2nd Tammy JoAnne Phillips 6/4/66
----------------------------------13: Sarah Elizabeth Savage 6/26/98
------------------------------12: Scott Allen 11/16/65
----------------------------------1st  Cynthia Renee Kitzmiller
----------------------------------13: Nathan Scott Savage 4/25/88
----------------------------------13: Ashley Renee Savage 3/8/90
----------------------------------2nd Christine Schaffer  
----------------------------------3rd Belinda Rae Savage 10/31/66
----------------------------------13: Candace Whitney Cuppett 6/17/90 (stepdaughter)
----------------------------------13: Miranda Brittany Cuppett 6/17/93 (stepdaughter)
----------------------------------13: Robert Andrew Cuppett 7/3/96 (stepdaughter)
----------------------------------13: Autumn Rae Savage 10/23/02
------------------------------12: Gregory Lynn Savage 7/24/68
-----------------------------------Alyson Kristie Liston 4/26/70
-----------------------------------13: Hannah Lynn Savage 9/5/98
-----------------------------------13: Lucas Kyle Savage 2/5/03
-------------------------11: James Edwin Savage 11/23/46
------------------------------Janelle Ann Matthews 12/30/52
------------------------------12: Brian Todd 12/19/72
-----------------------------------1st xxxx
-----------------------------------13: Emily
-----------------------------------2nd xxxxx
------------------------------12: Darcie Lynn Savage 12/2/74
-----------------------------------1st Eddie Cunningham
-----------------------------------13: Devin Cunningham
-----------------------------------2nd xxxxx
-----------------------------------13: Kaylee
-------------------------11: Catherine Patricia Savage 6/25/39
------------------------------John Roy Collins 9/17/59
------------------------------12: John Roy Jr. Savage 9/17/59
----------------------------------Ceil
------------------------------12: Tammy Lynn Collins Ord 9/13/62
----------------------------------1st Richard Shivers
----------------------------------13: Jesse Allen Shivers 6/2/88
----------------------------------2nd Robert Ord
----------------------------------13: Rachel Leigh Ord 8-21-96
-------------------------11: Carole Ann Savage 12/11/48
------------------------------William John Miller 9/1/45
------------------------------12:        Anthony Kent Miller 5/15/68
-----------------------------------1st Kimberly Ann Thompson 10/20/66
-----------------------------------13: Brandy Renee Miller 11/29/89
-----------------------------------2nd Kelly
------------------------------12: Chad Allen Miller 12/9/75
-----------------------------------Julie
-----------------------------------13: Cordell
-----------------------------------13:
------------------------------12: Markel Noah and Micheal Arthur Miller deceased twins 5/30/66 – died same day
-------------------------11: Lois Lenora Savage 10/2/50
------------------------------Clayton Dean Christopher 11/8/49
------------------------------12: Steven Dean 11/28/70
-----------------------------------April
-----------------------------------13: Courtney Noel Christopher 11/23/99
-----------------------------------13: Christopher
------------------------------12: Tracy Blair Christopher 3/30/74
-----------------------------------Sherry Snyder
-----------------------------------13: Courie Dawn Christopher 4/27/94
-----------------------------------Kelly
-----------------------------------13: Shane Andrew Christopher
-------------------------11: Jean Savage 8/14/42
------------------------------ Harold Blair Harman 2/24/42 (deceased)
-------------------------------12: Cynthia Dawn 10/25/64
------------------------------------1st Marty Hamrick
------------------------------------13: Rebecca Dawn Hamrick 12/1/82
------------------------------------Melissa Elaine Couch Harr
------------------------------------2nd Thomas Brewer
------------------------------------13: Justin Andrew Brewer Harr
------------------------------------13: Harr
-------------------------------12: Cheryl Jean 7/1/68 – 9/19/70
-------------------------------12: Wendy Lynn Harman 7/21/70
-----------------------------------1st Dale Bennett
-----------------------------------13: Bradley
-----------------------------------2nd Corric
-----------------------------------13: Benjamin
-------------------------11: Nancy Gay Savage 7/29/44
------------------------------David Ray Thompson 2/7/44
------------------------------12: Shelley Beth Thompson 7/18/68
-----------------------------------Christopher Alan Missimer 12/15/65
-----------------------------------13: Mikhaila Paige Missimer 12/22/97
-----------------------------------13: Peyton Christopher Missimer 10/19/00  
------------------------------12: Todd David Thompson 2/24/73
-----------------------------------Kelly Jane Teter 10/18/74
-----------------------------------13: Emily Jane Thompson 12/13/92
-----------------------------------13: Alyssa Kristen Thompson 8/7/99                
--------------------10: Oakie Allen Savage 5-15-03 – 7-15-33
-------------------------Beatrice May Uphole 11-19-04 – 9-18-93
-------------------------11: Stanley Allen Savage 4-2-27
------------------------------Floratta Mae Schell 4-20-30
------------------------------12: Terry Allen Savage 5-21-51
---------------------------------- Carol Lynn Bergstom 8-29-54
---------------------------------- 13: Bethany Ann Savage 7-28-82
--------------------10: Oliver Clearance Savage 7-22-10 – 1-28-85
--------------------10: Albert Henry Savage 4-21-21 – 8-4-58
-------------------------Loretta Bergman or Bergner 11-29-33
-------------------------11: John Albert Savage 10-7-45
-----------------------------Mary Kathern Deem 9-29-53
-----------------------------12: Neil Douglas Savage 8-26-69
----------------------------------Heather Renee Smith 12-18-74
----------------------------------13: Cody Douglas Savage 8-4-93
-----------------------------12: John Allen Savage 2-22-71
-------------------------11: Thomas Michael Savage 12-16-47
-------------------------11: Sharon Lousie Savage 5-7-49
-----------------------------1st Randy Kitzmiller 11-5-46
-----------------------------2nd David Koontz 4-1-xx
-----------------------------12: Michelle Koontz 2-14-77
-----------------------------12: Beth Marie Koontz 8-27-78
-------------------------11: James Patrick Savage 8-22-51 - 05
------------------------------Libby Elizabeth Dean 3-2-52
------------------------------12: Jennifer Patricia Savage 7-11-70
----------------------------------Clifford Manuel Moon 9-23-68
----------------------------------13:
----------------------------------13:
------------------------------12: Heather Savage 10-28-73
------------------------------12: Bradley S. Savage 3-16-77
------------------------------12: Randy Kitzmiller 1-29-79 (half brother)
--------------------10: Sadie Ellen Savage 4-20-00 – 2-17-73
------------------------1st Clarence Shope 4-20-00 – 12-8-32
------------------------11: Earl Milton Shope 3-3-26
-----------------------------Martha Lee Morris 7-14-29
-----------------------------12: Terry Lee Shope 5-24-48 – 2—28-59
-----------------------------12: Gary Earl Shope 5-27-50
----------------------------------Pamala Jean Dujac
----------------------------------13: Sheldon Ryan Shope 3-28-84
-----------------------------12: Cathy Lynn Shope 10-23-52
----------------------------------Ralph Arlington Cook 4-28-47
----------------------------------13: James Neal Cook 12-28-75
----------------------------------13: Russell Alvin Cook 5-7-80
-----------------------------12: Mark Jay Shope 4-24-55
----------------------------------Gail Sue Rohrbaugh 3-5-60
-----------------------------12: David Allen Shope 12-26-56
----------------------------------1st Lisa Tasker 12-25-xx
----------------------------------13: Terry Jay Shope 6-23-77
----------------------------------13: Amy Lynn Shope 6-22-80
----------------------------------2nd Robin Teets
-----------------------------12: Roxann Denise Shope 4-29-58
----------------------------------David Malcomb 10-8-57
----------------------------------13: Heather Lee Malcomb 4-27-79
----------------------------------13: Heidi Jo Malcomb 9-18-82
----------------------------------13: Nicky Todd Malcomb 9-16-84 Adopted
----------------------------------13: Patrick Wayne Malcomb 9-4-85 Adopted
------------------------11: Beulah Alberta Virginia Shope 12-12-27
-----------------------------Gerald Mitchell Crabtree 9-14-26
-----------------------------12: James Clarden Crabtree 12-21-53
-----------------------------12:Randy Gerald Crabtree 7-2-57
---------------------------------Brenda Sue Shaffer 7-6-59
-----------------------------12: Christopher Lynn Crabtree 12-26-60
----------------------------------Debra Sue Dixon 7-20-60
----------------------------------13: Brian Christopher Crabtree 7-15-85
----------------------------------13: Taylor Ryan Crabtree 8-24-88
----------------------------------13: Nicholas Lynn Crabtree 11-6-90
----------------------------------13: Lindsay Michele Crabtree 1-19-94
------------------------2nd George Henry Hinebaugh 12-31-03 – 1-9-64
------------------------11: Judy Ellen Hinebaugh 5-21-45
----------------------------Richard Lee Martin 8-24-41 – 6-14-89
----------------------------12: Karen  Sue Martin 4-19-66
---------------------------------1st William Michael LaRure 7-19-66
---------------------------------13: William Micheal LaRure Jr. 2-4-86
---------------------------------13: Chelsea Dawn LaRure 9-7-87
---------------------------------2nd Robert Paugh 4-19-xx
---------------------------------13: Whitney Paugh 10-1-91
----------------------------12: Rebecca Lynn Martin 3-21-73
---------------------------------Scott Wayne Ashby 6-12-71
---------------------------------Kala Renee Ashby 10-25-92
---------------------------------Melanie Taylor Ashby 1-26-96
--------------------10: Dessie Mae Savage 3-14-08 – 4-18-81
-------------------------George Walter Kisner 9-5-06 – 1-1-69
-------------------------11: Junior William Kisner 8-18-27 – 7-15-90
------------------------------Betty Beatrice Wolfe 12-5-26
------------------------------12: Rickie Lynn Kisner 6-15-48
-----------------------------------Phyllis Marie Skarzynski 1-14-51
-----------------------------------13: Tena Janell Kisner 9-17-74
------------------------------12: Candis Jane Kisner 5-3-52
-----------------------------------Donald Sylzesk Jones 11-23-62
-----------------------------------13: Rhonda Lynn Jones 10-1-72
-------------------------11: Harold Wayne Kisner 6-14-32 – 9-3-76
------------------------------Patricia Bell McCrobie 12-28-29
------------------------------12: Micheal Wayne Kisner 7-18-52
-----------------------------------Sandra Mae Parsons
-----------------------------------13: Daughter
--------------------10: Ocie Mable Savage 9-23-12 – 8-24-01
-------------------------1st Frederick Fike 12-30-11
-------------------------11: Ocie Lorraine Fike 12-30-34
------------------------------1stFrederick Carl Sims 12-10-35 – 7-11-94
------------------------------12: Wendie Kay Simms 1-31-57
-----------------------------------Randy L. Durst 5-13-67
-----------------------------------13: Joshua S. Durst 10-6-80
-----------------------------------13: Jennifer M. Durst 6-12-84
-------------------------------2nd Dallas Blaney 10-9-26
------------------------------12: Catherine Ann Simms 9-14-60 – 12-13-67
----------------9: Charles Savage 1881
--------------------Daisy Friend 6-20-1886
--------------------10: Ivy V. Savage 1905
------------------------_____ Carr
--------------------10: Arthur Savage 1906
------------------------Margaret _____
------------------------11: Shelby Jean Savage
----------------------------Dale Paugh
------------------------11: Lucille Savage
----------------------------_____ Glotfelty
------------------------11: Harold Savage
------------------------11: Betty Lou Savage
----------------------------_____ Roberts
--------------------10: Paul Savage 1910    (A Sadie Wilburn, b. 1915, married a Paul Savage per Vikky Wilburn Anders).
--------------------10: Pauline Savage 9-5-1913, Friendsville
------------------------Charles McFarland
------------------------11: Carolyn McFarland
----------------------------_____ Cottle
------------------------11: Richard McFarland 1942
------------------------11: Allan McFarland
--------------------10: Catherine Savage 1914
--------------------10: Beryl Savage
------------------------_____ Geohinger
------------------------11: Warren Geohinger
----------------9: Lizzy Savage Nov. 1881
----------------9: Isaac Taylor Savage 11-4-1884/85 MD
--------------------Nora Blanche Kelly 4-28-1896
--------------------10: Carley or Parley Savage 1915 MD
--------------------10: Dayton William Savage 5-21-1915 MD – 5-28-1977
------------------------Dorothy Beatrice Enlow 3-12-1922 Friendsville, MD
------------------------11: Darlene Rae Savage 10-2-1947
----------------------------Delmar Richard Brick, Sr. 8-2-1946
----------------------------12: Delmar Richard Brick, Jr. 2-17-1972
----------------------------12: Duane Kristin Brick 2-27-1975
----------------------------12: Darrick Kelly Brick 7-17-1977
------------------------11: James Dayton Savage 2-8-1952
----------------------------_____ Skeet 12-20-1953
----------------------------12: Grace Savage 2-17-1984
----------------------------12: Glory Savage 4-20-1985
----------------------------12: Bethany Savage 6-5-1986
----------------------------2nd wife of James Dayton Savage: Carol _____ 10-9-1952
------------------------11: Janie Carol Savage 1-18-1957
----------------------------Everett Milroy Coleman
----------------------------12: Taunia Sue Coleman 11-27-1973
--------------------------------Vince O'Neal
--------------------------------13: Morgan Elizabeth O'Neal 8-27-1997
----------------------------12: Michelle Dawn Coleman 12-23-1978
----------------------------2nd husband of Janie Carol Savage: Larry Ketterman, Sr. 10-11-1952
------------------------11: Joyce Marie Savage 12-8-1959
----------------------------Kenneth Wayne Martz
------------------------11: Gary William Savage 4-4-1966
--------------------10: Earl Savage 1918
----------------9: May E. Savage May, 1887
----------------9: Mary J. Savage Sept. 1889/91
----------------9: Catie H. Savage Aug. 1892
------------8:  Lucretia Savage  1852/54
----------------Samuel Milton Vansickle 1852/53 (An early contributor, unfortunately I don’t remember who, shows Cornelius W. Savage with a daughter, Lucretia, and
her being married to Samuel Milton Vansickle. Jeff Fowler shows Lucretia, b. 1854, married to Vansickle, as the daughter of Ezra and Mariah Savage. Joyce Glover also
shows her as the daughter of Ezra and Mariah and gives a precise birth date of 12-29-52. Ruth Snider Castagneri also shows her as the daughtrer of Ezra and has her
mother’s and her aunt’s verbal assurance of this fact. James Friend shows Lucretia, married to Vansickle, as the daughter of, Amos Wesley Savage. The 1860 census
shows Ezra Savage with a daughter, Lucretia, age 6, Amos Wesley with a daughter, Lucretia, age 4, and also shows a Lucretia, age 3, with Huldah Savage, age 38, in the
home of John L. Friend. This gives us three Lucretias ranging from ages 3 to 6 in 1860. I can find no census record of Cornelius Ward Savage having a daughter,
Lucretia. Jim Friend shows Lu’s middle name as, Preston. Ezra had a son, Preston, Lu’s brother – this is a good clue. Based on all the above I believe the Lu who married
Vansickle is the daughter of Ezra and therefore this is where I place Samuel Milton Vansickle.
----------------9: Amanda Vansickle 1862 -- 1930 (Note that the given birth date conflicts with those of her parents).
--------------------Joseph Fearer 1862
--------------------10: Gracie Fearer 1881
--------------------10: Floyd R. Fearer 1883 -- 1966
--------------------10: Catie A. Fearer 1884
--------------------10: Samuel W. Fearer 1887
--------------------10: Joseph F. Fearer 1888
--------------------10: Leslie P, Fearer 1891
--------------------10: Earnest C. Fearer 1894
----------------9: Lloyd Milton Vansickle 9-3-1878 -- 12-11-1954 (Married 5-11-01 at home of Newton Savage)
--------------------Myrtle Anna Casteel  6-12- 1880 Buffalo Co. NE – 6-29-1936 Gar. Co. MD
--------------------10: Nora Evelyn Vansickle 11-4-1901 Friendsville, MD. – 1930 Crellin, MD
--------------------10: Bessie Esther Vansickle  12-23-1903 Friendsville, MD – Gar. Co.1927
-------------------------Andrew Savage
--------------------10: Leona May Vansickle 6-27-1906 Friendsville, MD – 12-12-1917 Friendsville
--------------------10: Mary Jane Vansickle 12-6-1907 Friendsville, MD – 12-10-1992 Washington, PA
------------------------11: Ruth Snider Castagneri
--------------------10: Beulah Irene Vansickle 2-15-1910 Friendsville, MD – 12-29-1988 Virginia
--------------------10: Charles Albert Vansickle 5-21-1910 or 4-23-1915 Friendsville, MD – 1-4-1980 or 12-1-1990 LA. Latter dates are from Ruth Castagneri and are more
likely to be correct. (RBS)
--------------------10: Lottie Catherine Vansickle 2-17-1913 Friendsville, MD – 1978 .MD
--------------------10: Ruth Olive Vansickle 10-15-1917 Friendsville, MD – 12-23-2003 Monongalia, PA
--------------------10: William Edward Vansickle 1-21-1920 Friendsville, MD—Dec 1967 Baton Rouge, LA
--------------------10: Alonzo Milton Vansickle 7-7-1924 Friendsville, MD – 5-24-1947 Pentress, WV
----------------9: Ida N. Vansickle
----------------9: Mary E. Vansickle
----------------9: John Vansickle
----------------9: Charles Vansickle
----------------9: Effie Vansickle
----------------9: Rhuie Vansickle
----------------9: Clarence Vansickle
----------------9: Arena Vansickle
----------------9: Sadie Clare Vansickle
--------------------Jonas Fazenbaker
------------8:  James W. Savage  3-5-1855   
----------------Fannie Deitrick or Fanna Deidrich Feb. 1858
----------------9: Edward Savage  Mar. 1875/77 – 1962 (Listed as an artist in 1900 census)
--------------------Alice Van Sickle 1881/82
--------------------10: Arnold Savage 1903
--------------------10: Aubrey Savage 1904
--------------------10: Leona Savage  May 1905 -- Nov 2001
------------------------George Harrison Bittner, Sr. b. ? -- d. abt 1944. (Uncle of Barbara Lydzinski. Barbs mother: Lorene Jean Bittner.     Her parents: Silas Webster
Bittner and Sadie Elizabeth Claycomb Bittner)
------------------------11: George Harrison Bittner, Jr.
------------------------11: Fredrickson Ray Bittner
--------------------10: Truman Savage 1906/07
--------------------10: Thelma Savage 1910
--------------------10: Kenneth Floyd Savage 10-2-1910 Friendsville, MD
------------------------Laurna Jane Friend 9-18-1917 Friendsville, MD.
------------------------11: Beverly Deann Savage 6-13-1949
-----------------------------1st or 2nd _____ Cramer
-----------------------------2nd or 1st Bradley Lewis 3-3-1949
------------------------11: Bradley Kent Lewis 1-4-1974
------------------------11: Kim Lewis 11-6-1977
--------------------10: Florence (Etta) Savage 8-26-1912 -- 4-24-1941
--------------------10: Oda Savage 1915
--------------------10: Ervin Savage 1917
--------------------10: Glenn Denzel Savage 11-26-1918 Friendsville
----------------9: John A. Savage 4-13-1880 -- 1966 Md.
--------------------Fannie L. Morgan 9-27-1890 -- 1946
----------------9: Ezra Savage Mar. 1882/84 -- 1956
----------------9: Bruce E. Savage Jun. 1885
----------------9: Milton O. Savage Nov. 1886 Md.
--------------------Ida D. ____ 1874
----------------9: Ella E. Savage Aug. 1887
----------------9: Alice Savage Oct. 1890
----------------9: Minnie F. Savage Dec. 1892 Md.
----------------9: Dora B. Savage Apr. 1895
----------------9: Lloyd L. Savage Apr. 1896
----------------9: Clyde Homer Savage Nov. 1898
----------------9: Raymond M. Savage 1903
------------8: Albert or Allen Savage 6-6-1857 (appears in Joyce Glover’s chart)
------------8: Malinda Savage  12-4-1859 Md.           
------------8: John Albert Savage  4-17-1864-66 Md
---------------Lydia E. _____ Dec. 1866  ( Data on this family is from Theresa R. Bonetti and various census reports. In placing this John Albert Savage under Ezra and
Mariah Savage I have made two assumptions; #1. That the Albert J. Savage, wife Lydia, listed in the 1910 Friendsville, Maryland census is the same individual as this
John Albert Savage. #2. That this John Albert is the same individual as the John A. listed in the 1870 and 1880 census reports as the son of Ezra and Mariah Savage.
Although my degree of certainty is high, this is not proven, so one should exercise caution if using this data in a family chart).
---------------9: Herbert E. Savage Sept 1890.)
---------------9: Charity Maxine Savage Mar 1892 MD.
------------------Calvin Tenney
-------------------10: Chlora Alice Tenney (Grandmother of Theresa Bonetti)
---------------9: Harry E. Savage abt 1893
---------------9: Lloyd C. Savage abt 1895
---------------9: Edna M. Savage abt 1897
---------------9: Morris Oakey abt 1897
---------------9: Lidy E. Savage abt 1899
---------------9: Norman E. Savage abt 1903         
------------8: Mary Jane Savage  7-30-1868 Gar. Co.   
----------------William T. Sisler 1860 Gar. Co.
----------------9: Walter Savage  (Grandparents of Brenda Sisler Goss)
--------------------Clara Etta Reckart
----------------9: Roy Savage
---------7: Asa/Aza Savage  1-9-1827 Sand Spring, Al. Co. -- 10-16-1903 or 1908     
------------Eliza Glover  6 -16-1824 Pres. Co. WV -- 9-29-1903  (Parents; Richard Glover and Sarah Street)         
------------8: Salathiel Savage  5-4-1847  -- 5-19-1923.  Civil war vet. (Does not appear in 1850 census)  
----------------Mary Catherine Silbaugh May 1849  -- 1923           
----------------9: William Walter Savage 4-5-1868 Brandonville, WV.  -- 1950
--------------------Catherine A. Myers 1870
--------------------10: Lula Mabel Irene Savage 1891.
------------------------John D. McCuen
--------------------10: Bessie Clair Savage 1893
------------------------Wade Schlossnagel
------------------------11: Ama Catherine Schlossnagel
----------------------------_____ Alysworth
------------------------11: Judith Maxine Schlossnagel
----------------------------_____ Horwatt
--------------------10: Iva Geoa Savage 1896
------------------------Byard Liston
------------------------11: William R. Liston
--------------------10: Ione (V. or Manitha or Minilla) Savage 5-3-1898 (I think her name is Cora based on 1900 census)
------------------------Lawrence L. Friend, Sr. 6-7-1894 Md.
------------------------11: Lawrence L. Friend, Jr. 1928
------------------------11: Walter Lee Friend 1933
------------------------11: Jack Douglas Friend
--------------------10: Floretta Alberta Savage 10-31-1901
------------------------1st. Coovirt R. Thomas, Rev. 10-6-1887 Brandonville, WV – 3-8-1974     
------------------------2nd. William Rose
----------------9: Nettie Belle Savage  3-30-1870 Md.  -- 1899
--------------------1st. George Newcome Cunningham 1867
--------------------10: George Newcome Cunningham 1-6-1891
--------------------2nd. Lloyd Milton Welch 1875. m. July 5, 1896
--------------------10: Phyllis Kathleen Welch
----------------9: Floyd D. Savage  1-27-1874  -- 2-14-1877
------------8: Matilda “Mattie” Savage   9-4-1849  Gar. Co. -- 12-18-18__? Madison Co. Iowa
----------------Francis Asbury Hoff  3-10-1833 Allegany /Gar. Co. -- 3-19-1906 Marshalltown, IA
----------------(Shown by Jeff Fowler to have married a Joshua Myers).
----------------9: Florida Mae “Flora” Hoff
----------------9: Grant Hoff
----------------9: George Washington Hoff  7-3-1866 MD -- 8-11-1943 Oskaloosa, IA
--------------------Matilda Walker 9-9-1874 -- 9-19-1951  Oskaloosa, IA
--------------------10: William K. Hoff 12-12-1907
------------------------Opal May Wilson  11-23-1911
--------------------10: Vincent W. Hoff  12-9-1905
------------------------Opal Winger 2-13-1906
--------------------10: Leland R. Hoff 4-15-1900
------------------------Jewel D. Treece 10-7-1906
--------------------10: Ralph D. Hoff  6-8-1898
------------------------Emma Kluchesky  6-30-1897
--------------------10: Bernice Hoff  7-15-1896
------------------------Clarence Sonderegger
----------------9: William Sheridan Hoff  1868-69 WV -- 1925 Oskaloosa, IA
--------------------Maggie Klotz 9-17-1871 -- 1916
--------------------10: Verl Hoff  1-25-1896 St. Charles, IA
------------------------Alice Gorday
--------------------10: Iva Hoff 11-9-1900
------------------------1st Gerald Robinson
------------------------2nd _____ Stenger
--------------------10: Theodore Hoff  4-3-1905 Oskaloosa, IA
------------------------Hazel Lewis
----------------9: Albert Perry Hoff 5-29-1870 WV -- 1-19-1959 Miami, FL.
--------------------1st Mae ______
--------------------2nd Anna Catherine Hanson  6-4-1873  Early, IA
--------------------10: Albert Lavine Hoff  9-9-1893 Early, IA --5-17-1981 Des Moines, IA   
------------------------Iva Lavern Davis
--------------------10: Grace Hoff
--------------------10: Delbert Hoff
--------------------10: John Hoff
--------------------10: Veda Hoff
--------------------10: Vera Hoff
----------------9: Laura Catherine Hoff  7-18-1873 Madison Co.IA -- 7-5-1948 Des Moines, IA
--------------------1st James Madison McCollum 2-9-1860 Tuscawaras Co. OH -- 10-9-1938 Des Moines, IA
--------------------2nd Jesse Ransom Layton 7-9-1864 Fulton Co IL -- 5-22-1941 Des Moines IA
--------------------3rd John Robert Henry 7-19-1873 Boston, MA -- 6-13-1961 Indianola IA
--------------------10: Bertha Matilda McCollum b. 8-31-1891 Madison Co. IA - d. 5-3-1975 Des Moines, IA
------------------------1st Tracy James Phillips (Broherd)  12-17-1884 Mahaska Co IA - 3-4-1945 Lee County, IA (Broherd was adopted surname when mother remarried).
------------------------2nd George John Seiling b. 8-2-1882 Boone Co IA - d. 8-1968 Des Moines, IA
------------------------3rd  James A. Somers b. abt. 1867- d. abt 1938 Des Moines IA
------------------------11: Maxine Ruth Broherd b. 3-30-1911 Warren Co. IA -- d. 11-25-1992 Des Moines, IA
---------------------------- Grant Fairgrave Thompson b. 4-23-1912 Valley Junction, IA - d. 3-27-2001 Des Moines, IA
----------------------------12: Judith Kay Thompson 3-25-1939 Des Moines, IA
-------------------------------- 1st Richard Kent Smith 8-11-1938
-------------------------------- 2nd Joseph William Peace 9-11-1931
---------------------------------13: Michael Kent Smith
---------------------------------13: Richard Alan Smith
-------------------------------------14: Stephanie Rae Smith
-------------------------------------14: Douglas Kent Smith
-------------------------------------14: Dana Richard Smith.
----------------------------12: James Allen Thompson 6-13-1944 Des Moines IA -- 10-19-1999 Omaha NE
----------------------------------1st Bonnie Ann Phillips
----------------------------------13: Wendi Ann Thompson
----------------------------------13: Christy Joy Thompson
----------------------------------2nd m. Rose Jane Chu (no children)
------------------------11: Vivian Irene Broherd 4-11-1909 Oskaloosa, IA -- 7-6-1976 Des Moines, IA
----------------------------1st Leslie Dunlap “Dutch” Potter 5-4-1900 Atkinson, IL -- 6-13-1960 Waukee, IA
----------------------------2nd Steve Billmeier
----------------------------12: Wanda Mae Potter 12-16-1928 -- 3-22-1929 Waukee, IA
----------------------------12: Leslie Dean Potter 9-23-1930 died at birth, Waukee, IA
----------------------------12: Donna Lea Potter   3-9-1934 Waukee, IA
--------------------------------1st Eldon Triggs
--------------------------------2nd Leo Wayne Earhart
--------------------------------3rd Garth Masse
--------------------------------13: Wanda Marie Triggs
------------------------------------1st Fred Crooks II
------------------------------------2nd Rich Edwards
------------------------------------14: Jeffery Crooks
------------------------------------14: Daniel Crooks
----------------------------12: Charles Layton Potter 4-12-1936 Waukee, IA
--------------------------------1st Betty Bryant
--------------------------------13: Kimberly Sue Potter
--------------------------------13: Leslie Charles Potter
--------------------------------2nd Karal Ann Dickson
----------------------------12: Charlotte Ann Potter 8-19-1937 Waukee, IA
----------------------------12: James Ellsworth Potter 9-10-1941 Waukee, IA -- 2-21-2000 Chi. IL
----------------------------12: Donald Allan Potter 4-12-1945 Waukee, IA
--------------------------------1st Barbara Shriner
--------------------------------2nd Debra Stecker
--------------------------------Children with B. Shriner:
--------------------------------13: Dawn Potter
------------------------------------Ronald Peta
------------------------------------14: Chad Peta
------------------------------------14: Sarah Peta
------------------------------------14: Brittany Peta
------------------------------------14: Jordan Peta
------------------------------------14: Matt Peta (Adopted)
--------------------------------13: Denise Potter
------------------------------------_____ Herd
------------------------------------14: Marcuis Herd
------------------------------------14: Denisia Herd
----------------------------12: Ronald Gordon Potter 4-12-1945 (twin of Donald)
--------------------------------1st Deanna Merical
--------------------------------2nd Mary K. Lucas
--------------------------------Children with D. Merical
--------------------------------13: Douglas Potter
--------------------------------13: Daniel Potter
--------------------10: Leota May McCollum  1-11-1893 Mad. Co. IA --  7-18-1961 Des M., IA  
------------------------1st Milton Ray Woods 8-21-1887 Oskalossa, IA -- 1-10-1963  Hiawatha, KS
------------------------2nd Frank L. Ballard
------------------------11: Veda May Woods  10-10-1910  Des. Moines, IA -- 12-26-1948 WA
--------------------10: Earl Milton McCollum  3-25-1894 Mad. Co. IA -- 4-23-1935  Des M., IA
------------------------1st Inga E. Thompson
------------------------2nd Mildred Mabel Lettie Hedlund  3-28-1899 Cen. City, NE -- 3-26-1995 Aurora, NE
------------------------11: Morris Lee McCollum 4-27-1927 Denver, CO
------------------------11: Earl Milton McCollum, Jr.  4-18-1928  St. Chas., IA
----------------------------Ruth _____ 1-19-1932 -- 10-16-1993 Bedford, IN
----------------------------12: Nathan Brent McCollum 1-19-1959 Chi. IL
--------------------------------Nora _____
----------------------------12: Neal Bradley McCollum 10-23-1965 Oaklawn, IL
----------------------------12: Nelson Brian McCollum 9-1-1968 Oaklawn, IL
--------------------------------Shawn _____
--------------------10: Etta Ilo McCollum  8-8-1895 Warren Co., IA -- 7-28-1967 Winterset, IA
------------------------Loyd Edward Mason  9-24-1892 Marion Co. IA -- 6-14-1956 Winterset, IA ¬
--------------------10: Bertha Matilda McCollum 8-31-1891 St. Chas., IA --5-3-1975  Des M., IA
------------------------1st George Seilings
------------------------2nd James A. Somers
------------------------3rd Tracy James Phillips (Broherd) 12-17-1884 Oskaloosa, IA -- 3-4-1945 Keokuk, IA
------------------------11: Maxine Ruth Broherd 3-30-1911 Warren Co. IA -- 11-25-1992 Des Moines, IA
--------------------------------Grant Thompson
--------------------------------12: Judith Kay Thompson
------------------------------------_____  Peace
--------------------------------12: James Allen Thompson
----------------9: Floyd M. Hoff  1873-75 WV -- after Mar. 1959
--------------------Rickey Borner
--------------------10: Arthur Hoff
--------------------10: Leslie Hoff
--------------------10: Laurel Hoff
--------------------10: Vera Hoff
------------------------Rath
--------------------10: Bernice Hoff
--------------------10: Neva Hoff
--------------------10: Claude Hoff
--------------------10: Helen Hoff
--------------------10: Frances Hoff
----------------9: Mary Etta “Ettie” Hoff  1-14-1877 Pres. Co. WV -- 6-19-1903  Madison Co. IA
--------------------Marion Franklin Foster abt. 1877 IA
--------------------10: Fern Cloe Foster  10-8-1897 St. Chas., IA -- abt. 1961 Sutton, Neb.
------------------------Alex McDonald
--------------------10: Opal Pauline Foster  b. Warren Co. IA. -- d. 4-13-1986  York, Neb.
------------------------James Sheldon Barbee
--------------------10: Gladys Pearl Foster  1900
------------------------Udell _____
----------------9: Virginia M. “Jenny” Hoff  1877-80 WV
--------------------Thomas Athey   
--------------------10: David Athey b. St. Chas., IA
--------------------10: Oregon “Ora” Athey  b. St. Chas., IA
------------------------William Beu
--------------------10: Iva Athey  b. St. Mary, IA  
--------------------10: Clint Athey  1903  Truro, Romine Place, IA
------------8: Winfield Scott Savage  11-21-1853 Md. -- 1-23-1889   
----------------Mary Elizabeth Savage Dec. 1850 MD. – 1928 (Daughter of Wesley Savage)
----------------9: Veysa Savage 11-12-1873
----------------9: Dora Alice Savage 3-4-1875 or 76 – 2-19-1949 (Daughter of Winfield Scott Savage)
--------------------Samuel Rosswell Savage 6-3-1868 – 11-17-1930 (See children from this marriage under Samuel R.)
----------------9: Bruce Savage 1-6-1878
----------------9: Eliza May or Mae S. Savage 2-8-1880
--------------------Charles Somerfield DeWitt (Jeff Fowler shows a husband, _____ Wendorff).
--------------------10: Donald DeWitt
--------------------10: Curtiss DeWitt
--------------------10: Dayton DeWitt
----------------9: Playford Rosswell Savage 1-5-1882
--------------------Mary Craig Atkinson 2-28-1884
--------------------10: Henry Russell Savage 8-15-1912
--------------------10: Eleanor Elizabeth Savage 10-31-1914
--------------------10: Margaret Estelle Savage 9-7-1916
------------------------_____ Mooman
--------------------10: Stella “Sissy” Atkinson Savage (Twin)1-4-1920
------------------------_____ Devlin
--------------------10: Winfield “Buddy” Scott Savage (Twin)1-4-20
--------------------10: Marie Savage 4-4-1923
--------------------10: William Cecil Savage 4-28-1926
----------------9: Martin Luther Savage 11-10-1885 Sang Run
--------------------Mary L. Browning 7-20-1889 Sang Run
--------------------10: Wilbert Nathan Savage 12-11-1913 Sang Run
------------------------Mabel I. Savage
------------------------11: Kenneth D. Savage 9-27-1934 Connellsville, PA.
----------------------------Ruth Francis
----------------------------12: Valerie Savage 7-30-1955 Mojave, CA.
--------------------------------_____ Crawford
--------------------------------13: Bryan Crawford 2-6-1979 Mojave
------------------------11: W. Lyle Savage 4-17-1936 Sang Run
----------------------------Karen Jones
----------------------------12: Darlene Savage 6-12-1964 Cleveland, OH.
----------------------------12: Tracy Savage 8-29-1969 Cleveland, OH.
------------------------11: Bryan L. Savage 8-19-1937 Sang Run
----------------------------Patricia Dorie
--------------------10: Mary Louise Savage 3-19-1917 Sang Run
------------------------Harold Dalberg 7-3-1919 WA.
------------------------11: Jon Dalberg 12-19-1957 Everett, WA.
----------------9: Lily S. or Lillian B. Savage 7-24-1888
--------------------_____ Shartzer
----------------9: May Savage
----------------9: Orlando Savage
------------8: Marshal Savage  1-12-1852
----------------Mary _____ 1846
----------------9: Lupton Savage 1869/70
------------8: Mildred Savage   3-1-1856 Gar. Co. (not included in 1860 census? May have been mistaken for, Milford)
------------8: Milford Savage  1856  (in Dec 1860 census, age 4. Male)
------------8: Albert “Arthur” Savage   1-27-1858
------------8: Samantha Savage  1-1-1860  -- 5-3- 1894
----------------_____ Myers
------------8: Missouri Savage   6-3-1862
----------------1st. William Henry Harrison Friend 11-28-1840
----------------2nd. J.W. Phillipi
----------------9: Bruce Friend
----------------9: Harry Friend
----------------9: Floretta Friend
----------------9: Theodore Friend
------------8: Newton J. Savage  12-26-1864  -- 7-17-1932 ( Fowler shows as, N. Newton Savage).   
----------------1st Alice Welch           
----------------9: Icie May Savage  5-19-1889
--------------------Charles A. Groves
----------------9: Lily Blanch Savage  7-26-1890  -- 10-4-1891
----------------9: William Gilmore Savage  12-23-1891  -- 11-26-1894
----------------2nd Mary Martha Casteel   Feb 1879 -- 10-17-1923   
----------------9: Jesse M. Savage May 1898
----------------9: Leslie Earl Savage  7-20-1899
--------------------1st Ruth Teets 1901
--------------------10: Ray Elton Savage  5-22-1919 (Fowler lists as, Roy Savage).
--------------------10: Ernest Frederick Savage  2-7-1921
--------------------10: Robert Owen Savage  5-29-1923           
--------------------2nd Elsie Mae Margroff
--------------------10: Harry Newton Savage  7-29-1931
--------------------10: Mary Alice Savage  7-24-1933
--------------------10: Linda Savage
--------------------10: Dorothy Savage
--------------------10: Carolyn Mae Savage
----------------9: Orval Theodore Savage  6-12-1901 -- 10-23-1965
--------------------Verna B. Savage 1906
----------------9: Estella Agnes Savage (also shown as Agnes Elizabeth)  9-5-1903  -- 1925
--------------------Cornelius Wesley Sines 2-12-1901 -- 12-31-1962
--------------------10: Earl Newton Sines 5-21-1921
------------------------Opal Irene Groves 3-15-1922  
------------------------11: Ronald Junior Sines 4-23-1954
----------------------------Kathy Lynn Liston 12-31-1955
--------------------10: Mary Martha Sines 12-17-1922
------------------------Fred Willard Rodeheaver 7-3-1921
------------------------11: Wade Lee Rodeheaver 1-6-1945
----------------------------Pat Jean Ann Wiles 4-3-1948
----------------------------12: Robin Renee Rodeheaver 6-6-1968
----------------------------12: Randy Ray Rodeheaver 12-26-1972
--------------------------------Terri Tracy
--------------------------------13: Zachary Tyler Rodeheaver 2-1-1991  
------------------------11: Wanda Jean Rodeheaver 5-30-1946
----------------------------Donald Lee Dodge 6-18-1944
----------------------------12: Sandra Jeanette Dodge 10-6-1963
----------------------------12: Cynthia Ann Dodge 5=16=1971
----------------------------12: Martha Ellen Dodge 1-23-1976
------------------------11: James Edward Rodeheaver Sr. 9-20-1947
----------------------------Carol Elaine Statler 4-18-1951      
----------------------------12: James Edward Rodeheaver Jr. 5-31-1967
----------------------------12: Melissa Elaine Rodeheaver 1-25-1969
------------------------11: Janet Louise Rodeheaver 3-15-1950
----------------------------William Gene Ashby Sr. 8-21-1945
----------------------------12: William Gene Ashby Jr. 5-26-1966
----------------------------12: Glenn Allan Ashby 7-12-1967 -- 1-2-1970
----------------------------12: Scott Wayne Ashby 5-12-1971
----------------------------12: Michael Lynn Ashby 3-5-1974
----------------------------12: Amy Michele 12-19-1976
------------------------11: Karen Sue Rodeheaver 9-26-1957
----------------------------Robert Lee Reese 12-10-1953
----------------------------12: Tanya Dawn Reese 8-11-1975
--------------------------------Terry Joe LaRue Sr.
--------------------------------13: Terry Joe LaRue Jr.
--------------------------------13: Twin girls 11-20-1995
------------------------11: Marvin Dale Rodeheaver 5-27-1961
----------------------------Maryan Elizabeth Moats 6-3-1976
----------------9: George Newton Savage  4-25-1905
----------------9: Jack Newton Savage  3-5-1909
--------------------_____ _____
--------------------10: Jack Edward Savage
--------------------------Patricia McGee
--------------------------11: Jack Wilson Savage
-------------------------------Robin Beckadic
----------------9: Junior Cecil Savage  1-21-1913
----------------9: Mable Irene Savage  12-10-1917  -- 12-2-1922 (Fowler lists as J. Mabel).
------------8: Viola Savage  7-26-1866 MD
----------------Enos Williams Sines  1862
----------------9: Clarence Sines
----------------9: Troy Sines
----------------9: Ward Sines
------------8: Arthur A. Savage  8-21-1868 MD -- 1936
----------------Sarah Elizabeth “Sarah Jane” Kelly 12-20-1873     
----------------9: Cora Amelia Savage 4-18-1895 – Oct. 1974
--------------------1st. Ross Elmer Fike, Sr. 1-9-1893 Selbysport, MD – 12-29-1972
--------------------2nd. Orville Miller (Shown by Galica to also have married Jessie Workmen).
----------------9: Oakey Savage 1896
----------------9: Oma Pearl Savage 7-7-1898
--------------------Orval Frazee   (Also found record of an Oma Savage, b. 1896 md. to, Orval Friend.)
----------------9: Bertha Augusta Savage 11-13-1900
--------------------William Henry Riley, Jr. 12-7-1894 ( They lived in Carrolton, Ohio)
----------------9: Troy Mason Savage abt 1904
----------------9: Bruce Gilbert Savage 1905
----------------9: Floyd Savage (Twin) 8-21-1910 -- 3-7-1970 Clifton Mills, WV. (Info from Brenda Clark)
-------------------- Virgil Glendene Reckart 11-30-1914 -- 10-29-1984
--------------------10: Betty Louise Bolyard  3-18-1932 -- 9-16-2005  (Daughter of Virgil)
-------------------------Daniel Cabler Driskill 9-18-1928 -- 4-19-1994
-------------------------11: Deborah Jo Driskill 9-5-1957
-------------------------11: Daniel Cabler Driskill 11-15-1958
-------------------------------Maria Fitzpatrick 1-22-1958
------------------------------12: Colleen Thersa Driskill 7-21-1986
------------------------------12: Daniel Allan Driskill 11-23-1988
-------------------------11: Linda Diane Driskill 3-8-1960
--------------------10: Ellen Josephine Savage 5-15-1934
--------------------------Robert James Roll 2-21-1933
-------------------------11: Byron Floyd Roll 7-17-1960
-------------------------11: Anita Gail Roll 10-16-1962
------------------------------Rueben Amado Valderrama
------------------------------12: Eric Paul Valderrama 8-30-1980 Santa Claira, CA
------------------------------12: Rueben Markos Valderrama 11-12-1982
--------------------10: Willard Leon Savage 2-12-1937 Hazelton, WV
--------------------------Dottie Lou DeVall 3-15-1947
--------------------------11: Willard Leon Savage, Jr. 1-27-1967
--------------------------------Lisa Lorraine Pancoast (Divorced)
--------------------------11: Tammy Jo Savage 9-17-1973
--------------------10: Mary Ann Elizabeth Savage 5-16-1939 Hazelton, WV
-------------------------Walter Carl Herrick 1-27-1933 -- 11-28-1980
-------------------------11: Walter “Kirk” Herrick 9-25-1959
------------------------------Terri Letszinger 2-21-1959
------------------------------12: Brandon Herrick 6-15-1984
------------------------------12: Christie Herrick 10-2-1982
-------------------------11: John Jeffery Herrick 11-15-1960
-------------------------11: William Gregg Herrick 6-7-1962
------------------------------Rosanna Samenta
------------------------------12: Ronaldo Samenta
------------------------------12: Rodrigo Samenta
-----------------------------------Rosilie _____
------------------------------12: Lorena Samenta
------------------------------12: Grace Cayetano
-------------------------11: James David Herrick 1-12-1968
--------------------10. Regina Kathleen Savage 4-1-1941
-------------------------Wendell Blaine Lewis 6-1-1941
------------------------11: Brenda Lou Lewis Clark 9-17-1960
-----------------------------Thomas Wade Clark
-----------------------------12. Samantha Jaane Clark 1-23-1988
------------------------11: Barbara Jean Lewis 11-20-1961
-----------------------------Mark Anthony Ottley
-----------------------------12: Trevor Ryan Ottley 8-28-1988
------------------------11: Lova Jane Lewis 1-30-1965
-----------------------------Russell Dale Benson 6-24-1960
-----------------------------12: Shane Ryan Benson 11-16-1985
------------------------11: Tammy Sue Fike 9-22-1971
-----------------------------Steven Foster Savage 5-10-1965 (Parents; Foster and Elsie Savage)
-----------------------------12: Tamara Sue Savage 1-26-1991
-----------------------------12: Sara Dawn Savage 12-30-1993
--------------------10: Donna Sue Savage 12-29-1943
--------------------------Robert Junior Strawser
--------------------------11: Michael Dale Strawser 5-21-1960
--------------------------11: Daniel Joseph Strawser 3-13-1962
-------------------------------Michelle Cuppett 12-12-1963
-------------------------------12: Brandy Jo Strawser 12-18-1981
--------------------10: Joyce Elaine Savage 6-29-1950
--------------------------Randy Gregg 6-20-1951
--------------------10: Patricia Gay Savage 7-31-1955
--------------------------Dexter McKinley 10-4-1956
--------------------------11: Cabel Ray McKinley 6-21-1977
-------------------------------Mary Pardini
-------------------------------12: Cabel Ray McKinley, Jr. 9-15-1995
-------------------------------12: Joey
--------------------------11: Jeromy Ross McKinley 9-22-1980
----------------9: Lloyd Savage (Twin) 8-21-1910     
--------7: John Wesley  Savage  6-3 or 6-9-1829  Al. Co. -- 12-14-1898     
------------Julia Ann Umble    8-13-1835 Al. Co. -- 12-2-1917     
------------8: Lemuel Luther Savage  2-1-1858 MD. – 6-18-1944     
----------------Monliza Umbel  10-18-1862 – 10-25-1940   
----------------9: Mary Florence “Flo” Savage 3-5-1887 – 6-19-1971 Connelleville, PA
--------------------Walter DeWitt
---------------------10: Howard DeWitt
---------------------10: Clara DeWitt  
----------------9: Milton Ray Savage  9-29-1904 -- 7-16-1997     
--------------------Thelma Frances Dixon 5-23-1904 -- 5-23-1960
--------------------10: Wilda Marie Savage 5-9-1923 or 25 -- 2-27-1994
------------------------James Kepler Snyder  d. 4-14-1977     m. 10-27-1942
------------------------11: William Snyder
------------------------11: Lynda Kepleen Snyder 4-18-1949
------------------------11: Wanda Lee Snyder 2-25-1951
--------------------10: Majorie Lorraine (or, Loreen) Savage 3-17-1927
------------------------Darrell Edward Simpson
------------------------11: Kevin Darrell Simpson 9-8-1949
------------------------11: Donna Sue Simpson 11-14-1950
--------------------10: Mary Ellen Savage 10-24-1930
------------------------James Ray Friend
------------------------11: James Friend
------------------------11: Barbara Friend
------------------------11: Danny Friend
----------------------------Denice Ringer
------------------------11: Rhonda Sue Friend 6-29-1949
--------------------10: Clyde Milton Savage 7-13-1937
------------------------Naome Spiker
--------------------10: Carolyn Frances Savage  6-10-1940     
------------------------1st; William Lewis Kelley  9-14-1940
------------------------2nd; Sherman Davis (no children)
------------------------11: Tracy Lynn Kelly  4-21-1962
----------------------------Michael Andrew Griffith
----------------------------12: Ryan Patrick Griffith  11-15-1983
----------------------------12: Taylor Andrew Griffith  10-23-1985
----------------------------12: Hayden Michael Griffith  2-26-1991
----------------------------12: Garrett Davis Griffith  1-21-1997
------------------------11: William Patrick Kelley  6-12-1964
----------------------------Lisa Ann Jobe  8-28-1963
----------------------------12: William Keaton Kelley  1-10-1992
----------------------------12: Dylan Patrick Kelley  10-4-1993
----------------------------12: Madison Grace Kelley  8-29-1995 (twin)
----------------------------12: Matthew William Kelley  8-29-1995 (twin)
------------------------11: Jonathan Ray Kelley  2-9-1969    
----------------9: William E. Savage Mar. 1883
----------------9: Walter Clinton Savage Mar. 1885 – 1-13-1976
--------------------1st. Elsie Alice DeWitt 1888 -- 1942
--------------------10: Mable Irene Savage 6-30-1907
--------------------10: Stanley Gilbert Savage 1910 – 1976
-------------------------Grace Alice Keefer 7-28-1906 – 3-17-1985
-------------------------11: Ralph Keefer  (Step son of Stanley G.)
------------------------------Beatrice Nair
------------------------------12: Ralph Keefer, Jr.
------------------------------12: Nancy Keefer
-------------------------11: Clifford Savage  d. 2011
------------------------------Shirley Peck
------------------------------12: Brenda Savage
-----------------------------------Steve Gnegy
-----------------------------------13: Hannah Gnegy
------------------------------12: Lisa Savage (Adopted)
-----------------------------------Kevin Kenney
-----------------------------------13: Female
-------------------------11: Betty Savage
------------------------------Lawrence Cooper 3-16-1927 – 9-26-2005
------------------------------12: Alvin “Alvie” Owen Cooper
-----------------------------------Barbara ______
-----------------------------------13: Female
------------------------------12: Gary Cooper
-----------------------------------Brenda
------------------------------12: Vickie Diann Cooper 1-11-1954
-----------------------------------Bobby Allen Davis 1-17-1952
-----------------------------------13: Two children
-----------------------------------13: Female
------------------------------12: Timothy Paul Cooper
-----------------------------------Carolyn ______
-----------------------------------13: Two children
-------------------------11: Geraldine Savage
------------------------------Herbert Wolf, Sr.
------------------------------12: Three children
-------------------------11: Clinton Savage
------------------------------Billie ______
------------------------------12: Four children
-------------------------11: Kenneth Henry Savage 6-20-1940
-------------------------------Nancy Carol DeWitt 5-6-1944 [Parents of donor Jennifer Marie (Savage) Wilson]
-------------------------------12: Four children
-----------------------------------13: Many grandchildren
---------------------------------------14: Great grandchildren
-------------------------11: Thelma Savage
-------------------------------Jack Bowers
-------------------------11: Carolyn Savage
------------------------------“Hunk” Cogley
--------------------10: Ernest Clinton Savage 3-24-1913
--------------------10: Anna May Savage 1914 – 1939
--------------------10: Christina Maxine Savage 3-26-1917
--------------------10: Luther William Savage 8-10-1920 – 4-27-1976
-------------------------Myrtle
--------------------10: Twin girls still born
--------------------2nd. Nanny Caulderwood    d. 1962-63
----------------9: Sarah A, Savage 11-1-1893 – 9-19-1965
-------------------______ Holtschneider
----------------9: Mary E, Savage Mar. 1887
----------------9: John Wesley Savage 12-15-1889
--------------------Proe I. ____ 1893
--------------------10: Mabel I. Savage 1914
--------------------10: Bulea Savage 1917
----------------9: Sarah A, Savage Nov. 1893
----------------9: Charles Playford Savage 1900/01 – 9-11-1923
------------8: Mary C. Savage  5-9-1860 MD. -- 1935
----------------Amos Myers Umbel 6-1-1858 PA. -- 1935       
------------8: Isaac “Ike” McClellen Savage  6-23-1862  MD. -- 9-8-1937 Sand Spring, MD.
----------------Anna “Annie” B. Fike 7-2-1869 – 3-23-1944. (“Eliza Anna” per Galica)
----------------9: Alvin “Dutch” Savage 1-11-1890 (Galica states Alvin was fathered by a George Hoff prior to marriage)
------------------- Nora Alice Fike
----------------9: Asa Savage 11-5-1893 – 2-20-1894
----------------9: Beatrice “Bedia” C. Savage 3-30-1895 Sand Spring – 3-3-1990
--------------------Clifford Enlow, Sr. 3-8-1896 – Sep 1959
--------------------10: Virginia Enlow 9-23-1917
-------------------------Earl glotfelty
--------------------10: Robert Enlow 10-21-1918
------------------------Ruth S. Humbert
--------------------10: Eileen Enlow 6-11-1921
-------------------------Elwood DeWitt
--------------------10: Clifford Enlow, Jr. 5-22-1923
-------------------------Dixie Watson
-------------------------Judy Martin
--------------------10: Melvin Enlow 8-8-1927
--------------------10: Eugene Enlow 6-6-1931
-------------------------Thelma Hanlon
-------------------------Janice Layne
----------------9: Nora Savage 5-18-1897 MD.
-------------------- John Kurtz
--------------------10: Curtis Savage 12-16-1912 (born to Nora prior to marriage)
--------------------10: Verdie Ann Kurtz 1924 – 1931
--------------------10: John Kurtz, Jr.
----------------9: Mary Victoria Savage 11-28-1899 Friendsville, MD – 1-25-1989
--------------------1st Carl Lytle
--------------------10: Maxine Lytle
------------------------ James Simpson
--------------------10: Bus Lytle 4-12-1927 -- 1945
--------------------2nd Frank Brown
--------------------10: Marilyn Brown
-----------------------Randolph Janeway
--------------------10: Marsha Brown
----------------9: Benjamin F. Savage 2-25-1902 Sand Spring – 5-11-1993
--------------------Pauline E. Lytle 11-16-1904 Sang Run, MD – 3-2-1977
--------------------10: Burlton H. Savage 6-9-1924 – 12-12-1944 ( WWII Died in France)
--------------------10: Kermit B. Savage 7-26-1926 McHenry, MD
------------------------Betty Foy
----------------9: Everett Savage 6-10-1903 Sand Spring – 1-28-1980
--------------------Mary Jane Rodeheaver 4-25-1907 (This family info sent by Icia Wolfe)
--------------------10: Carl Edward Savage 8-29-1928
------------------------Maxine Marie Rodeheaver 4-25-1907
------------------------11: Dennis Edward Savage 10-19-1956
------------------------11: Darrell Allen Savage 1-11-1962
--------------------10: Lola Minnie Savage 4-26-1930
------------------------Buehl Wilburn
--------------------10: Anna Mary Blanche Savage 4-22-1932
------------------------Donald Fratz
----------------9: Lottie Leola Savage 10-10-1905 Sand Spring – 6-4-1999 Vine Grove, KY
------------------- Lloyd Schroyer
-------------------10: Helen M. Schroyer
------------------------LeRoy Rhodes
-------------------10: Phyllis Jean Schroyer
-----------------------Benjamin Earl Field
-------------------10: Virginia E. Schroyer
------------------------Carl Hile
-------------------10: Betty Mae Schroyer
-----------------------1st _____Dayton
-----------------------2nd_____Plumblee
----------------9: Lydia Savage 4-8-1907
--------------------Charles Harvey
--------------------1st or 2nd _____ Cummings
--------------------10: Rose Cummings
--------------------10: Cindy Cummings
--------------------2nd or 1st Charles Harvey
--------------------10: Dale Harvey
-------------------------Ann _____
--------------------10: Rhea Mae Harvey
-------------------------Mike Hlopak
--------------------10 Charlotte Harvey
------------------------_____ Rowell
----------------9: Rueben E. Savage 4-12-1909 McHenry, MD – 10-5-1998
--------------------Margaret Frazee
----------------9: James Savage 1909
----------------9: Ruth Savage 3-31-1911/12 – 1-3-2003
--------------------Robert Enlow
--------------------10: Edwin Savage (per Galica, born prior to Ruth’s marriage to Enlow. Father - Carl Friend)
--------------------10: Kathy Enlow
-------------------------1st Gary Carr
-------------------------2nd Wiley
----------------9: Curtis Savage 1914
------------8: George Wesley Savage  10-21- 1864 MD. (1900 census gives birth date as Apr 1862)
----------------Lydia Humberson 3-6-1869 MD. -- 1951
----------------9: Millie Savage 1895 (1900 census lists as, Nellie)
----------------9: Ada Savage 1897
----------------9: Bertha Alice Savage 6-5-1898
--------------------Jonas Randolph Bittner, Sr. 11-7-1894
--------------------10: Jonas Randolph Bittner, Jr. 8-28-1915
------------------------Pearle Agnes Colflesh 5-30-1919
----------------9: Azetta Savage 1900
----------------9: Oscar Savage 1903   
------------8: Harriet “Hattie” Savage  11-20-1866 MD -- 1915.
----------------Jasper Guard 10-21-1849 Selbysport, MD -- 1931.
----------------9: May Guard 1884 Selbysport
----------------9: Ethel Guard 1886 Selbysport
----------------9: Earl Guard 1888 Selbysport
--------------------Mickey McCullough
----------------9: Jenette Guard 1890 Selbysport
--------------------Jack Welch
--------------------Jacob Earl Statler
------------8: Thomas Perry Savage  2-29-1868 MD. -- 1954  (Regina Rapacon’s grandfather)
----------------Ella Fleda Glotfelty July 1871/72
----------------9: James D. Savage Sept. 1891
----------------9: Blain Savage 1900
----------------9: Nell A. Savage 1903
----------------9: Julia M. Savage 1907
----------------9: Annie May Savage 1909
----------------9: Naomi Savage
----------------9: Eunice Savage
----------------9: Ralph Edgar Savage 1911
----------------9: Dwight Savage
------------8: Jerome 5-26-1872 MD. -- 12-13-1882
------------8: Savilla Savage 5-26-1875 -- 12-22-1876
------------8: Anna Belle Savage 3-26-1876 MD. -- 10-19-1964
----------------Charles Thomas 5-5-1875
----------------9: Cecil C. Thomas 2-24-1897
--------------------_____ Lowdermilk
----------------9: George Kenneth Thomas 7-28-1899
--------------------Sarah Elizabeth Fosbrink 5-1-1908
--------------------10: Samuel Eugene Thomas 8-21-1926
------------------------Lois Winifred Van Sickle
--------------------10: Burgett Wayne Thomas 1-26-1928 Fayette Co. PA.
------------------------Margaret May Nicklow
--------------------10: Doris Jeanine Thomas 1929
--------------------10: Richard Charles Thomas 5-5-1933 Fearer, MD.
------------------------Ruth Ellen Griffith
--------------------10: Jackie Theodore Thomas 8-12-1935 Fearer, MD.
------------------------Mary Catherine Boden
------------------------11: Mary Jane Thomas 12-10-1959
--------------------10: Lowell LaVane Thomas, Sr. 1-6-1937 Friendsville, MD
------------------------Gertrude Carmelita Robertson 10-14-1939 Mt. Savage, MD.
------------------------11: Lowell LaVane Thomas, Jr. 5-24-1958 Oakland, MD.
----------------------------Christine Sue DeWitt 2-11-1958 Oakland
----------------------------12: David LaVane Thomas 10-21-1977 Meyersdale, PA.
----------------------------12: Jennifer Sue Thomas 7-26-1980 Meyersdale
--------------------------------Travis Duckworth
--------------------------------13: Sydney Jordan Thomas
----------------------------12: Sonja Marie Thomas 2-23-1993 Oakland, MD.
------------------------11: Connie Jean Thomas 5-18-1959 Oakland, MD.
----------------------------Dennis Kitchen
------------------------11: Joyce Ann Thomas 11-9-1962 Oakland
----------------------------Bobby Gene Flinn, II
----------------------------2nd wife of Lowell LaVane Thomas, Sr. Doris Elaine Hook
----------------------------12: Kelli Renae Thomas 5-27-1970 Oakland
--------------------------------Steven Marshall Bittinger
--------------------10: Shirley Ann Thomas 10-12-1940 Friendsville, MD.
------------------------Roland Robert Fisher
--------------------10: Robert Kenneth Thomas 9-9-1941 Uniontown, PA.
------------------------Carol Lee Fisher
--------------------10: Darlene Joyce Thomas 12-20-1945 Uniontown, PA.
------------------------Paul Douglas Sisler, Jr.
------------------------11: Douglas Paul Sisler
------------------------11: Christopher Todd Sisler
------------------------11: Patricia Ann Sisler
----------------------------_____ Morris
----------------9: William Emerson Thomas 2-22-1906
------------8: Charles M. Savage 1877
----------------Sarah A. _____----b. 1878
----------------9: Catherine I. Savage 1902
----------------9: Franklin J. Savage 1905
--------7: Nancy Savage  Al. Co. 5-15-1820 -- 1904
------------Robert E. Savage (See linage under, (3)Robert E, Savage, of (2)Evan).              
--------7: Amelia “Milly” Savage  5-13-1826 Al. Co.     
------------Joseph Recknor  
------------8: Mary Irene Recknor 2-10-1849 reported birth date
----------------Benjamin Shepp (Grandfather of Zella Shepp Cramer <zelan@juno.com>)
----6th. Gen: Evan Savage   1797 Blooming Rose/Sand Spring, along Buffalo Run, Al. Co. MD.      
--------Mary Markley  abt 1798           
--------7: William H. Savage  Oct,1820 Al. Co.     
------------Lydia Ann Savage Aug, 1825 (Daughter of John R. Savage).
------------8: Longsworth Savage  1852   
------------8: Louisa  abt 1854
------------8: Marshall  abt 1855
------------8: Hiram  abt 1857
------------8: William  1861
------------8: Ulysses Grant Savage abt 1864
----------------Kerren A. _____  1867
----------------9: Bethy V. Savage  1892
------------8: Henry McClellan "Clellie" Savage abt 1861/64
----------------Mary F. _____  1861/62 -- 1922
----------------9: Nettie Savage  1884 -- 1897
----------------9: Lou Savage  1886
----------------9: Cora Ellen Savage  1889 -- 1964
--------------------Walter Friend
----------------9: Lloyd Savage  1890
----------------9: Roy Savage  1891
----------------9: Albert Ross Savage  1893
----------------9: Theodosia Savage  1897
----------------9: Monroe Savage  1-6-1900 - - 1900
----------------9: Ray savage  1903
------------8: David Ellsworth Savage  1866
--------7: Jacob Savage  abt 1831 Al. Co.     
------------Eliza _______           
--------7: John Savage  abt 1832 Al. Co.
------------Catherine _____  abt 1835
------------8: Joseph Savage July 1852 MD
----------------Clara Bell Wagner Apr 1869 MD
----------------9: Winfield Savage
----------------9: Pearl Savage
----------------9: Carl R. Savage
----------------9: Glen A. Savage
----------------9: Agatha E. Savage
----------------9: Elen B. Savage March, 1888, Md.
----------------9: Josephine Savage March, 1890, Pa.
----------------9: Mary C. Savage June, 1893 Henry Clay Township, Pa.
--------------------Thomas Devan
----------------9: Charles Roy Savage 8-21-1895 Fayette Co. Pa.
----------------9: Joseph W. Savage 12-28-1898 Pa. -- 7-24-1956 Masontown, Pa.
----------------9: Basil Savage 5-12-1901 Pa. -- 6-25-1967 Norwalk, Ca.
--------------------Alice Elizabeth Betts
--------------------10: Wilma Jean Savage
-------------------------George Feree
-------------------------11: Barbara Ellen Feree
-------------------------11: George Feree
--------------------10: William Allen Savage
--------------------10: Leonard Wayne Savage
--------------------10: Erna Savage
--------------------10: Gary Savage
--------------------10: Louella May Savage
-------------------------Francis “Ike” Paul Piper
-------------------------11: Kathy Lou Piper
----------------------------- _____ Balmer
-------------------------11: Brenda Joyce Piper
-------------------------11: Susan Kay Piper
-------------------------11: Francis Paul Piper II
------------8: Silas Wesley Savage 2-5-1855 MD -- 4-15-1914 (This family info per Reta Diethorn & Florence Nicklow Elliott).
----------------Alice J. Walters  5-22-1858 PA -- 6-29-1944           
----------------9: Nora Helen Savage 1896 (Reta’s great grandmother)     
--------------------William Elliot Brant  12-18-1886 – 8-10-1933  
----------------9: Effie Mae Savage 7-21-1886 PA -- 11-18-1952
--------------------Winfield S. Nicola (Nicklow)
--------------------10: Raymond Leroy Nicklow 10-14-1918  -- 8-29-1971
-------------------------Marguerite Nelson  8-9-1916  -- 4-21-1995
------------------------11: Raymond Leroy Nicklow, Jr. 2-16-1952
----------------------------Penny Deavers
------------------------11: Florence Arlene Nicklow 2-5-1954
-----------------------------Charles Earl Elliott 1-18-1955
-----------------------------12: Charles Nathan Elliott 8-8-1979
-----------------------------12: Meghann Saunders Elliott 3-28-1982
-----------------------------12: Lauren Elizabeth Elliott 1-17-1986
-----------------------------12: Kevin Andrew Elliott 2-15-1989
-----------------------------12: Jensyn Adeline Catherine Elliott 6-21-1995
--------------------10: Jason Nicklow  abt 1912 PA
--------------------10: Edward Nicklow  abt 1917 PA
--------------------10: Mary Nicklow  abt 1921 PA
--------------------10: James Nicklow  abt 1924 PA
--------------------10: Philip Nicklow  abt 1927 PA
----------------9: Eli Thomas Savage  Mar 1890 Fayette Co., PA
--------------------Nancy Brant
--------------------10: Nellie Aldora Savage 1924 – 1976
------------------------Francis Leo Smithberger
-------------------------11: Linda Smithberger
----------------9: Sylvania Savage Apr 1893 PA (1910 census has a Maggie S. age 17)
----------------9: Jasper A. Savage (son) May 1899 PA
----------------9: John H. Savage abt 1902 PA
----------------9: Katie S. Savage  abt 1907 PA (1910 census age 3)
------------8: Billie/Bella Savage  1862
------------8: John Savage  1863
------------8: Jordan Savage  1864/66
------------8: Ida Savage  1878
------------8: Julia Savage  1879
--------7: Robert E. Savage   1812/1820  Al. Co. -- 12-6-1895     
------------Nancy Savage   5-15-1820 Al. Co. -- 1-30-1904           
------------8: Nelson E. Savage 7-4 - probably 1842 Al. Co.  (Civil war vet).
----------------1st Lucretia Clark      
----------------9: Sarah Savage abt 1869           
----------------2nd Barbara Chrise (1850 census, age 1/6, with Daniel & Elizabeth Chrise. Next door to Alexander and Elizabeth Thomas, perhaps the parents of E. Chrise).
----------------9: Charles Savage  abt 1875 Gar. Co.     
----------------9: Louisa Savage  abt 1878 Gar. Co.     
----------------9: Milton (Jackson) Savage  9-10-1880 Gar. Co. d. 10-31-1960 Monongalia Co. WV.     
--------------------1st. Olive Mae (Ollie Mae) Fike abt 1879  
--------------------2nd. Florence “Rosie” Myers (Florence had a son, Richard Myers, father unknown, raised by Milton).
--------------------Offspring of Milton Savage and Olive Fike:             
--------------------10: Russell Milton Savage 11-16-1901 Fayette Co. PA. -- 2-14-1986 Cuy. Co. OH.     
------------------------Violet Lois Bucklew  2-15-1905 Preston Co. WV. -- 11-22-1983 Cuy. Co.            
------------------------11: Gloria Florence Savage  12-12-1924 Pres. Co. WV.  -- 8-13-1925           
------------------------11: Darwin Maxwell Savage  4-18-1927 Monongalia. Co. WV.     
----------------------------1st. Gypsy Theresa Estaban     
----------------------------2nd. Marian Joan King           
----------------------------Children with Gypsy Estaban           
----------------------------12: Melody Lane Savage  7-16-1948 Monongalia Co. WV.     
--------------------------------Rodney Ozmun           
--------------------------------13: Todd Allen Ozmun  01-10-1972  
------------------------------------ Kathy _____         
------------------------------------14: Dalton Alexander Ozmun  2-6-94           
----------------------------12: Darwin Duane “Duane” Savage 06-29-1949 Mon. Co. WV.     
--------------------------------Laura Ellen Carrell  3-19-1956           
--------------------------------13: Natasha Rene Savage 2-18-81 Florida     
--------------------------------13: Alexandra (Allie) Lee Savage  1-24-1990 Fl.           
----------------------------12: Violet Marlena Savage  5-29-1951 Mon. Co. WV.      
--------------------------------1st.  ______ Turangalo       
--------------------------------2nd. Cliff Stoufer           
--------------------------------13: Angela Marie Turangalo  2-11-1971
--------------------------------13: Tara Theresa Stoufer  1-1-1981           
----------------------------12: John Thomas Russell (Rusty) Sheridan Savage  8-18-1952 Ohio     
--------------------------------Joy Ann McCormick------------     
--------------------------------13: John Russell Savage 8-22-1978     
--------------------------------13: Mathew Thomas Savage  9-22-1981     
--------------------------------13: Erika Alden Savage  3-14-1985           
----------------------------12: Cindy Kay Savage  12-22-1953 Ohio     
--------------------------------Gary Anthony Tosella           
--------------------------------13: Joshua Anthony Tosella  2-26-1977     
--------------------------------13: Gabriel Robert Tosella  9-20-1978           
----------------------------12: Helena Shane Savage  12-23-1954 Ohio     
--------------------------------_______ Rich           
----------------------------12: Kimberton Steel Savage  9-19-1956 Ohio           
------------------------11: Darrell Duane Savage  3-11-1929 Monongalia Co. WV.     
----------------------------Zona Lorriane Hennen  10-31-1931 WV.           
----------------------------12: Regan William Savage  9-13-1952 Cuy. Co. OH.     
--------------------------------Janice Elizabeth Histand  7-1-1952           
--------------------------------13: Ryan Michael Savage   6-6-1974     
------------------------------------Alyssa Sniffin  11-4-1974     
------------------------------------14: Kaylee Elizabeth Savage  7-30-1999           
--------------------------------13: Natalie Gail Savage  1-7-1976     
------------------------------------Ryan Cutting  2-2-1975           
----------------------------12: Timothy Darrell Savage  1-20-1954 Cuy. Co. OH.     
--------------------------------Rhonda Kay Miller  1-1-1957     
--------------------------------13: Jonathan Thomas Savage  3-8-1989. OH.     
--------------------------------13: Christopher Thomas Savage  2-24-1993 OH.     
--------------------------------13: Matthew  Thomas Savage 12-8-1995 OH.
----------------------------12: Jacqueline Sheree Savage Jantz 01-3-55
--------------------------------Mark Randall Jantz 4-24-53
--------------------------------13: Jamie Lynne Jantz 3-11-78          
------------------------11: Doris Dawn Savage  10-08-1930  -- 1-09-1932 Mon. Co. WV.           
------------------------11: Iris Lee Savage  11-16-1932 Mon. Co. WV.     
----------------------------1st. Paul Burpee Williams  1-3-1928     
----------------------------2nd. Ronald Dale Keller           
----------------------------Children with Paul Williams: All born in Ohio     
----------------------------12: Kyndrea Margo Williams 9-3-1954     
--------------------------------George Frank Kub 2-10-1955     
--------------------------------13: Kara Stacia Kub  7-3-1979     
--------------------------------13: Eric Blasius Kub  1-11-1981           
----------------------------12: Dayna Kathleen Williams  4-25-1956     
--------------------------------Leland Schubkegel  6-21-1955           
--------------------------------13: Shannon Violet Schubkegel 2-3-1982     
--------------------------------13: Ashley Iris Schubkegel  10-16-85           
----------------------------12: Shawna Jean Williams  11-15-1957     
--------------------------------Martin Joseph DiOrio  7-4-1955           
--------------------------------13: Thomas Anthony DiOrio  2-24-1983     
--------------------------------13: Alyssa Ann DiOrio  3-7-1990           
----------------------------12: Karla Lee Williams  12-24-1958     
--------------------------------John (Jack) Michael Yurichak  5-25-1955           
--------------------------------13: Edward Paul Yurichak  8-19-1982     
--------------------------------13: Kristy Lynn Yurichak  6-17-1984     
--------------------------------13: Leah Kathleen Yurichak  1-12-1987           
----------------------------12: Stacia Lynn Williams  6-30-1967     
--------------------------------Ronald Patrick Ciocca, Jr.  7-30-1967           
--------------------------------13: Anthony Michael Ciocca  7-7-1992     
--------------------------------13: Nataly Assuntine Ciocca  10-5-1994                 
------------------------11: Russell Blair Savage  12-12-1934   Mon. Co. WV  (goes by R. Blair).
----------------------------1st. Jane Forman  9-5-1939 Mon. Co. WV     
----------------------------2nd. Marilyn Louise Rapp  8-29-1950 Clay, Co. WV           
----------------------------Children with Jane Forman:     
----------------------------12: Tawnia Marie Savage  3-26-1959 Por. Co. OH.     
--------------------------------Joseph Mazzulo  6-26-1954 OH.           
----------------------------12: Trina Louise Savage  3-5-1961 Cuy. Co. OH.     
--------------------------------Robert Kurth Honer  3-20-1971 PA.           
----------------------------12: Tracy Kay Savage  5-28-1963 Cuy. Co. OH.     
--------------------------------James Vincent Zuccaro  11-13-1961 OH.           
----------------------------12: Tricia Lee Savage  3-21-1965 Cuy. Co. OH.     
---------------------------------1st. Paul Darrah  9-25-1964     
---------------------------------2nd. Tony Gray           
----------------------------12: Tamara Malissa Savage  7-1-1975 Cuy. Co. OH.
----------------------------------Benjamin Clay  6-4-1966  Phil. PA
------------------------11: Kathleen Elenore Savage  02-25-1939 Preston Co. WV.     
----------------------------James Andrew Bills  5-31-1938 PA.           
----------------------------12: Michele (Shelly) Lynne Bills  6-13-1964 OH.     
--------------------------------1st. John ________     
--------------------------------2nd. John Michael Kess  9-3-1963           
----------------------------12: Shawn Paul Bills 4-10-1966 OH.                       
------------------------11: Margo Lynn Savage  03-19-1940 Preston Co. WV.     
----------------------------Jerry Wayne Perry  3-18-1940 Kanawah Co. WV.           
----------------------------12: Jason Allen Perry  6-17-1970 OH.     
--------------------------------Desiree Toth  1-3-1970 OH
--------------------10: Clifford Earl Savage Sr.  1-9-1903 Fay. Co. PA.     
------------------------Mary Marie Shaffer           
------------------------11: Lucille May Savage 7-27-1929 Pres. Co. WV.     
----------------------------Warden Lyle Dalton  5-24-1928 WV.           
----------------------------12: Joyce Ann Dalton  9-14-1948     
--------------------------------_______ Jauerqui     
----------------------------12: Wendy Marie Dalton  3-15-1952     
--------------------------------Kirk Georgi  5-17-1956           
------------------------11: Bernice Marie Savage  6-5-1931 WV     
----------------------------Delmer Paul Gibson Sr.  1-31-1926           
----------------------------12: Karen Lynn Gibson  2-20-1961     
--------------------------------Arthur Allen Centofanti  6-15-1955           
----------------------------12: Kimberly Kay Gibson  8-27-1978           
------------------------11: Iretta Jean Savage  3-13-1935 WV.     
----------------------------James Foster Luzier  11-9-1936 WV.           
----------------------------12: Rodney Allen Luzier  3-17-1965 WV.     
--------------------------------Marikay Kaltsukis   
----------------------------12: Rick Dale Luzier 5-12-1957 WV.     
--------------------------------Samantha Polce  1-6-1960           
----------------------------12: James Britton Luzier  4-27-1959 WV.     
--------------------------------1st. Shila DeBerry     
--------------------------------2nd. Kathy Crescenzi           
----------------------------12: Bradley Earl Luzier  3-29-1961 WV.     
--------------------------------Lisa Krynicki  1-26-1961           
----------------------------12: Jody Scott Luzier  10-24-1962 WV.     
--------------------------------Angie Grimm  1-16-1965           
------------------------11: Wanda  Eileen Savage  11-27-1938 WV.     
-----------------------------Richard Patrick Ackerman  3-17-1936           
------------------------11: Clifford Earl Savage Jr.  8-12-1941 WV.     
-----------------------------Carolyn Rose Polce  5-1-1943           
----------------------------12: Sheri Eileen Savage  1-19-1964 OH.      
--------------------------------1st. Ronald Deffenbaugh     
--------------------------------2nd. Darren Gregory Dorito  11-25-59           
----------------------------12: Terri Lynn Savage  9-16-1967 Oh.     
--------------------------------m. ________     
--------------------10: Harvey Savage PA.     
------------------------1st Genevieve _______     
------------------------2nd Irene _______           
------------------------11: Dorothy Savage (of 1st wife)     
------------------------11: Betty Savage (of 1st or 2nd)     
------------------------11: Patty Savage (of 1st or 2nd)     
------------------------11: Charlene Savage (of 2nd)     
------------------------11: Nancy Savage (of 2nd)     
------------------------11: Dixie Savage (of 2nd)           
--------------------10: Edith Savage      
------------------------Claude (Slim) Frankenberry     
--------------------10: Harold Savage (died age 3-4)           
--------------------10: Rose Marie Savage (died age 3 mos,)
----------------9: Lucricia Savage  Oct. 1887
--------------------Elmer Milton Fike 6-19-1877 Bruceton Mills, WV – 1-16-1956 Franklin Co., OH
-------------------10: Isaiah Easter Fike 4-12-1903 WV – 3-28-1988 Lower Burrell, PA
------------------------1st Pearl Henry
------------------------2nd Elsie Irene Leasure
-------------------10: Susannah Elizabeth Fike 8-5-1906 Uniontown, PA
------------------------Christian Becker
-------------------10: John Nelson Fike 1912
------------------------Margaret (Peg) _____            
----------------9: John Savage  Mar. 1888            
----------------9: Lilly Savage  Dec. 1894                 
------------8: Richard Savage  abt 1843 Al. Co.            
------------8: Sarah Ann Savage  abt 1847 Al. Co.           
------------8: Jeremiah Savage  abt 1849/52 (Twin) Al. Co. (The 1880 census gives age as 28. The 1900 gives as 50, born 1850)
----------------Charlotte _____ Apr 1855 PA (Father born Ireland (1880 census shows Charlotte, age 27, son, Thomas, age 2/3.)
----------------9. Richard Savage Mar 1889 PA
----------------9: Thomas Savage 1880 Gar. Co.---- (This based on 1880 census. Not appearing in 1900 census)
----------------9: Samuel Savage Apr 1881 PA
----------------9: William Savage Apr 1884 MD
----------------9: Harrison Savage May 1887 PA
----------------9: Bert Savage Apr 1889 PA
----------------9: Catherine Savage Aug 1894 PA
----------------9: Jennie B. Savage Sept 1897 PA
----------------9: Violet Savage Nov 1899 PA (Assume this is “Violet”. Appears spelled as, Vilat in 1900 census)
------------8: Henry Savage  abt 1849/52 (Twin) (1900 census gives age as 55 – birth year unknown)
----------------Louisa  _____ abt 1852  (It appears to be Lucinda in 1880 census, Louiza in 1900 census).         
------------8: Kimel Savage Dec 1858 Al. Co. MD -- 1921 Henry Clay Twp, Fayette Co., PA (
----------------Sarah Lily _____ May 1864 PA -- 1-10-1936 Henry Clay Twp, Fayette Co., PA (Lily may be maiden name)
----------------9. Rada, or Rhoda, or Rhodie Eldora Savage Dec 1885 PA -- 9-30-1951 Confluence, PA
--------------------Walter Lewis Bird 2-25-1884 Fay. Co., PA -- 8-3-1920 Fayette Co., PA
--------------------10: Nellie E. Bird 6-17-1909 Fay. Co., PA -- Aug 1986 Fay., Co., PA
--------------------------Robert A. Harris 1916-1997
--------------------10: Samuel Emory Bird 11-1-1912 Fay., Co., PA -- 10-16-1967 Fay Co., PA
--------------------------Thelma Pearl Dillinger 1918-1965
--------------------10: Palmer Vance Bird 10-22-1914 Fay., Co., PA -- 6-30-1983 Markleysburg, PA
--------------------10: Allison K. Bird 1-27-1916 Markleysburg, PA -- 12-10-1939 Markleysburg, PA
--------------------10: Arley Lee Bird 4-4-1918 Markleysburg, PA -- 12-10-2005 Pittsburgh, PA
-------------------------1st. Verlie Vernice Weaver 1922-1983
-------------------------2nd. Althea Mae Perkins 1922-1995
----------------9: [Nancy 1878] (appears in 1880 census under, Kimmel Savage)
--------------------Andrew Jackson Dennis 2-11-1878 Fayette Co., PA -- 1939 Uniontown, PA
------------8: Robert Savage  11-18-1859 Al. Co. Md. -- 1-26-1948 Fayette Co. PA
----------------Mary Rovilla Fike 9-11-1864 Sand Spring, Al. Co. -- 10-11-1939
----------------9: James Marion Savage 07-02-1882  Markleysburg, PA  -- 08-09-1956  Uniontown, PA
--------------------Rose Cupp 2-25-1889 Uniontown, PA -- Jan 1975 Uniontown
--------------------10: Evelyn Savage
------------------------Joe Cave 1914-1977
------------------------11. Cheryl Lynn Cave 7-7-1946
----------------9: George Floyd Savage  03-16-1884 Friendsville, MD -- 07-16-1959 Uniontown, PA
--------------------1st. Sara Alice Savage  10-13-1887 -- 03-29-1989 Uniontown, PA (divorced some time before 1917; she remarried, Christopher Dennis in 1919)
--------------------10: Ralph E. Savage 09/25/1905  Markleysburg, PA  -- 11/03/1989  Uniontown
-------------------------Marie David
-------------------------11: George Savage
-------------------------11: Alice Marie Savage 12-11-1929 Uniontown, PA
-------------------------------1st. Ross L. Connor
-------------------------------12: Sally L. Connor 1-23-1947 Uniontown, PA
-------------------------------2nd. Francis J. Cambria, Jr. 9-8-1923 Uniontown, PA -- 1-26-1995 Sonoma, CA
-------------------------------12: David Cambria 4-24-1964 Cleveland, OH
------------------------------12: Kathleen Cambria
-------------------------11: Ralph Howard Savage
-------------------------------? Miller
------------------------------12: Ralph Howard Savage, Jr. 10-25-1957 Uniontown, PA
------------------------------12: Rodney Lee Savage 12-21-1958 Uniontown
-------------------------11: William Lee Savage 4-12-1941 Uniontown, PA
-------------------------------Barbara Louise Show
-------------------------------12: William Russell Savage 10-6-1962 Cleveland, OH
--------------------10: Robert Harrison Savage  08-07-1908  Markleysburg, PA -- 9-17-2003 Uniontown, PA
------------------------Alfiena Madeline Falcone 04-03-1910  Connellsville, PA -- 03-14-1993  Uniontown
------------------------11: Robert Harrison Savage Jr. 11-20-1931 Uniontown
-----------------------------Gladys Ruth Turnbull
-----------------------------12: Robert H. Savage III    
-----------------------------12: Linda Savage
-----------------------------12: Scott Savage
-----------------------------12: Ryan Savage
------------------------11: Eugene Savage  07-23-1933 Uniontown
---------------------------- Leila
-----------------------------12: Debbie Anne Savage
-----------------------------12: Daniel Savage
------------------------11: Alice Faye Savage 07-23-1933 Uniontown
-----------------------------Stanley Guzik, Jr.
-----------------------------12: Mark A. Guzik
-----------------------------12: Marcy L. Guzik
-----------------------------12: Joylyn Guzik
------------------------11: Infant Savage Dec 1936 -- 12-10-1936
------------------------11: Donna Marie Savage 12-06-1937 Uniontown -- 06-09-1998  Uniontown
----------------------------Michael George Nahaj  01-02-1933
-----------------------------12: Michael George Nahaj Jr. 10-16-1959 Uniontown
-----------------------------12: Bryan Anthony Nahaj 02-06-1962 Uniontown
-----------------------------12: Lisa Marie Nahaj 05-30-1967 Uniontown
------------------------11: Judith Ann Savage 02-19-1940  Uniontown, PA    
-----------------------------Thomas Ritz
-----------------------------12: Cindy Ritz
-----------------------------12: Thomas Ritz Jr.
-----------------------------12: Jamie Ritz
-----------------------------12: Tracy Ritz
-----------------------------12: Timothy Ritz
-----------------------------12: Greg Ritz
------------------------11: Patricia Louise Savage 13-03-1942 Uniontown
---------------------------- John (Jack) Over
-----------------------------12: John Over Jr.
-----------------------------12: Sonya Over
-----------------------------12: Gary Over 9-11-1962 Uniontown, PA
-----------------------------12: Pamela Over 11-29-1964 Uniontown, PA
----------------------------------Kenneth Hughes
------------------------11: Lovetta  Savage 12-01-1944  Uniontown, PA
---------------------------- Joseph Kish
-----------------------------12: Joseph Alan Kish
-----------------------------12: Lovetta Kish
-----------------------------12: Jeffery Kish
-----------------------------12: Kimberly Kish
--------------------10: Raymond L. Savage 07/22/1910  Markleysburg, PA -- 07/14/1997 Uniontown
-------------------------Marian Kovach 4-12-1914 Smithfield, PA -- 2-18-2002 McClellandtown, PA
-------------------------11. Raymond Floyd Savage 7-15-1936 Uniontown, PA
----------------------------- Shirley Joanne Petruska 12-30-1937 Uniontown, PA
-------------------------------12: Terry Lynn Savage Kolencik 8-7-1960 Uniontown, PA
-------------------------------12: Laurie Ellen Savage 8-15-1963 Uniontown, PA
-------------------------11: Donald Gabriel Savage 9-23-1937 Uniontown, PA
--------------------10: Thelma Irene Savage 08-21-1912 Markleysburg, PA -- 12-27-2001  Uniontown
-------------------------Gerald L. O’Hern
-------------------------11: Beverly O'Hern Sept 1931 -- 7-3-1958 Uniontown
-------------------------------Charles R. Lulich
-------------------------------12: Thomas Lulich
-------------------------------12: Timothy Lulich
-------------------------11: Rose Marie O'Hern  
------------------------------Robert Bodnar
------------------------------12: Christie Bodnar
------------------------------------Sean Biro
------------------------------12: Colleen Bodnar
------------------------------------Rick Watkins
------------------------------12: Robert Bodnar
---------------------------------  Lynn _____
------------------------------12: Rebecca Bodnar 4-20-1963 Uniontown, PA
---------------------------------- Gary Gruen
----------------9: Jennie Belle Savage  08-13-1885 Fayette Co., PA  -- 1885
----------------9: Ada Alice Savage  08-24-1887 Fayette Co. -- 02-17-1980
----------------9: Nettie Ann Savage  04-08-1890 Fayette Co. -- 06-03-1977  Indianapolis, IN
--------------------James F. Fike 4-7-1890 Preston Co., WV -- Sept 1983, Brownsville, PA (Brother of Olive Mae Fike
--------------------10: Authur James Fike 9-7-1912 Uniontown, PA -- 3-4-2006 Lake Villa, IL
--------------------10: Harold E. Fike 12-17-1913 Uniontown, PA -- 9-19-1970 Denver, CO
-------------------------Gertrude Nussbaumber
--------------------10: Edgar J. Fike 5-15-1920 Uniontown, PA -- 1-22-2004 Ocala, FL
----------------9: Cora Ellen Savage 08-12-1893 Fayette Co. -- 05-01-1986
--------------------George Thomas
--------------------10: Betty Thomas 6-11-1919 Uniontown, PA -- 9-22-2001 Uniontown
-------------------------William L. Hines
-------------------------11: William L. Hines, Jr.
-------------------------11: Gary K. Hines
--------------------10: Doris Thomas
--------------------------Joseph K. Flynn
-------------------------11: Sharon Flynn
-------------------------11: Douglas Flynn
-------------------------11: Brian Flynn
-------------------------11: Dwight Flynn
-------------------------11: Kellie Flynn
----------------9: Minnie May Savage 04-29-1895 Fayette Co. -- 11-10-1981 Wilkinsburg, PA
--------------------Thomas Douglas Patterson 2-24-1892 Fay. Co., PA -- 8-20-1943 Oliver, PA
---------------------10: Donald Patterson 4-28-1916 Oliver, PA -- 4-8-1993 Pittsburgh, PA
---------------------10: Ruth Patterson 1924 Oliver, PA -- 11-11-2006 Pittsburgh, PA
----------------9: Mary Catherine Savage  08-15-1897 Fayette Co. -- 08-24-1989
---------------------Altha J. Bierer 1900 -- 6-7-1962 Uniontown, PA
---------------------10: Jean Bierer McCormack
----------------9: Dora Pearl Savage 08-30-1899 Fayette Co. -- 03-01-1991
---------------------Adolph J. Priester
---------------------10: Wallace V. Priester 6-28-1922 Uniontown, PA -- 8-5-1995 Uniontown, PA
--------------------------Dorcas Hann
---------------------10: Earl A. Priester 1924 Uniontown, PA
---------------------10: Edward G. Priester Jun 1929 Uniontown, PA
----------------9: Edith Marie Savage 03-07-1901 Fayette Co. -- 10-28-1983
----------------9: Earl Edward Savage 03-01-1903  Fayette Co., PA – 8-12-2002, Uniontown, PA
--------------------Emma Louise Stets 1/17/1905 Lambert, PA -- 9/27/1994, Uniontown, PA  
--------------------10: Doris Ann “Dee” Savage 2-9-1927 Uniontown, Fayette Co. Pa.
-------------------------Daniel “Danny” Mihalko 11-1-1925 Brownfield, PA -- 10-29-1976 Uniontown, PA.
-------------------------11: Dana Marie Mihalko 11-30-1950, Uniontown, Pa.
------------------------------William John Tomcanin 9-28-1949 Charleroi, Washington Co., PA
-----------------------------12: Robert Daniel “Rob” Tomcanin 12-28-1976, Pittsburgh, Al. Co., PA (Key source of info)
---------------------------------1st. Misty Leigh-Taylor DeMetro 9-27-1976 Jeannette, Westmoreland Co., PA
---------------------------------13: Jeremiah Robert Tomcanin 9-1-2006, Towson, Maryland.
---------------------------------2nd. Now unmarried
-----------------------------12: Kristyn Marie “Krissy” Tomcanin 1-1-1980 Pittsburgh, PA
-----------------------------12: Renee Elizabeth Tomcanin 8-24-1981 Pittsburgh, PA
-------------------------11: Mark Daniel Mihalko 2-13-1952 Uniontown
------------------------------Mary Lewis 4-28-1953 Fayette Co., PA
-----------------------------12: Mark Anthony Mihalko 2-18-1972, Uniontown
---------------------------------1st. Cynthia Sofranko 5-25-1973 Fayette Co., PA
---------------------------------13: Genesis Georgian Mihalko 1-15-1998, Fredericksburg, Spotsylvania Co, VA
---------------------------------2nd Brenda Davis 7-30-1970 Chesapeake, VA
---------------------------------13: Jillian Mihalko 8-28-2002, Norfolk, VA
---------------------------------13: Jolene Mihalko 8-28-2002, Norfolk, VA
---------------------------------13: Markie Mihalko 7-28-2004 Chesapeake, VA
-----------------------------12: Amanda Elizabeth Mihalko 4-15-1981, Mt. Pleasant, Westmoreland Co. PA
-----------------------------12: Benjamin Ryan Mihalko 1-19-1983, Mt. Pleasant
----------------------------------Joanne Impelluso 9-13-1983, New Jersey
-----------------------------12: Matthew Mihalko 3-13-1986, Mt. Pleasant
----------------------------------2nd Now unmarried
-------------------------11: Karen Ann Mihalko 8-3-1954 Butler, Butler County, Pennsylvania        
-----------------------------1st. Donald Kenneth Dowling, Jr. 8-10-1951 Uniontown -- 8-19-1994 Edenborn, Fayette Co., PA
-----------------------------12: Jennifer Lynn Dowling 8-16-1974, North Little Rock, AR
-----------------------------12: Jason Lee Dowling 12-10-1980, Uniontown
-----------------------------12: Jonathan Lyle Dowling 1-17-1982, Uniontown
-----------------------------2nd.Randy Hegedis 1957 Greene Co., PA
-----------------------------3rd Now unmarried
------------------------11: Debra Lynn Mihalko 1-7-1958, Uniontown
------------------------11: Paul Joseph Mihalko 9-16-1959, Uniontown
-----------------------------Amy Rochelle Fitzsimmons 11-2-1959, Uniontown.
----------------------------12: Danielle Christine Mihalko 5-31-1978, Uniontown
----------------------------12: Paul Joseph “P.J.” Mihalko, Jr. 12-1-1979, Uniontown
---------------------------------Casey Lynne Jericho 2-8-1981, Jefferson Co., PA
---------------------------------13: Emma Leigh Mihalko 8-25-2008, Prince William Co., VA.
----------------------------12: Brittany Nicole Mihalko 11-10-1989, Uniontown
------------------------11: James Earl Mihalko 7-17-1961, Uniontown
------------------------11: David John Mihalko 9-19-1964, Uniontown
----------------------------Kathryn Ann Shiner 12-12-1966, Uniontown.
----------------------------12: David John Mihalko, Jr. 5-15-1995, San Diego, CA
----------------------------12: Daniel Stanley Mihalko 3-9-1997, San Diego
----------------------------12: Timothy Christopher Mihalko 2-2-1999, Uniontown, PA
----------------------------12: Rebecca Kathryn Mihalko 11-7-2000, Uniontown
--------------------10: Earl John “Hack” Savage 2-28-1931, Uniontown.
-------------------------Rosemary Ann Lazaran abt 1934 -- 1-1998 in Mishawaka, IN
-------------------------11: Stephen Savage 9-19-1969, South Bend, St. Joseph Co., IN
--------------------10: James Edward “Jim” Savage 12-1-1935, Uniontown.
-------------------------Karen Jean Bittinger 1947, Uniontown.
-------------------------11: James Edward “Jimmy” Savage, Jr. 8-13-1971, Uniontown.
-----------------------------Christine _____
------------8: Charles Savage abt 1869 Al. Co.                 
--------7: Amos Savage  Jan 1835 Al. Co.     
------------Louisa _______           
--------7: Evan R. Savage Jr.  abt 1836 – Census reports living in Allegany Co., MD in 1910, age 75.  (Evan R. Savage, Jr. family info by Mauri Savisky. Middle initial “R”
added.) (1870 census lists Evan as a coal miner)
------------Ellen _____ 1839
------------8. Evan F. Savage 1856
------------8. Thomas Savage 1855
------------8, Mary A. Savage 1857
------------8. Simantha C. “Kate” Savage 1860
------------8. George McClellan Savage April 1862
----------------Lydia _____ 1869
------------8. Columbus E. Savage Feb. 1866, MD-------Railroad Conductor
----------------Alice_____ May 1869, MD
----------------9. Ethel Savage Nov. 1891, WV
----------------9. Edith Savage 1896, WV
----------------9. James R. or Raymond J. Savage 1903, WV
----------------9. Columbus M. Savage 1906, MD
------------8. William H. Savage Jan 1869 – abt 1913-16 (1870 census in Al. Co. MD. Locomotive Engineer. 1910 in Pres. Co. WV)
----------------1st Annie _____ Jan 1861 – 8-12-1907
----------------9. Iva P. Savage Jun 1897
----------------2nd Minnie B. _____ 1885
----------------9. Elizabeth M. Savage 1913
------------8. Lillie Savage 1871
------------8. Sarah E. Savage 1873
------------8. John W. Savage 1878
------------8. Minnie Savage 1880  
---------------_____ Wilson
----------------9. Alexander Wilson 1904, MD
----------------9. Helen Wilson 1905, MD
----------------9. Mary E. Wilson 1906, MD
--------7: Ann Savage     
------------_____ Myers           ¬
--------7: David H. Savage  abt 1841  
--------7: Eliza Savage  1845         
----6th. Gen: John R. Savage 1802  Al. Co. MD.    
--------Karrenhappuck Friend  3-16-1802  Sang Run, MD.         
--------7: Lydia Ann Savage Aug. 1825 Gar. Co.    
------------William H. Savage  (See William H., Son of Evan Savage).   
--------7: Lavinia Savage 1826     
------------Adam Ringer 1822
------------8: Mary Ringer 1845     
------------8: Martha Ringer 1847     
------------8: Rebecca J. or, L. Ringer 1849     
------------8: John Ison Ringer 8-20-1854 -- Dec, 1918     
----------------Lucretia A. Frantz 1854    
----------------9: Minnie May Ringer 10-18-1876 -- 10-17-1949     ¬
--------------------Thomas Jefferson Schroyer  8-26-1875 MD.
--------------------10: Lida Marie Schroyer 1-29-1903   
----------------9: Thomas Clinton Ringer Oct 1878     
--------------------Blanche Frantz     
----------------9: John R. Ringer Jun 1880     
----------------9: Lavinia Estella “Stella” Ringer 1883/84 -- 8-26-1963     
--------------------Amos Marshall Fike
--------------------10: Ison Marshall Fike 7-2-1905 -- 7-25-1926
------------------------Elma Lucinda Schroyer 12-23-1909
------------------------11: Virginia Dare Fike 6-10-1930 – 11 Sep 2010
---------------------------- Albert Donald Holly 27 Aug 1927 -- 13 Mar 1997 [did not marry]
----------------------------12: Ronald Albert Sands 1-11-1949 Fay. Co. Pa. (Son of A.D. Holly, given the name, Sands).
------------------------------- [1st] Eileen Parker 9-14-1950 Tenn.
--------------------------------13: Mindy Eileen Sands 12 Jan 1974
------------------------------------ [1st] Jason Dewayne Walker
------------------------------------ [2nd] Adam Everette
-------------------------------------14: Adam Brenner Parker Everette 2004
-------------------------------------14: Katie Eileen Evertte
--------------------------------13: Jeremy Sands 5 Feb 1976
------------------------------------ Shari Diane Sobin  
-------------------------------------14: Bailey Evelyn Sands 03 Nov 2013
-------------------------------------14: Noah Edwin Sands 03 Nov 2013
------------------------------- [2nd] Mary Beth Kline
----------------------------William Junior Sands 9-26-1926 – 02 May 2010
----------------------------12: Linda Lee Sands 6 Oct 1951
-------------------------------- Kenneth Wilburn
----------------------------12: Terry Lynn Sands 13 Dec 1956
-------------------------------- Charles Williamson
----------------------------12: Keith William Sands 16 Feb 1959
-------------------------------- Vicki Marlene Gates
----------------------------12: Robert Lewis Sands 15 Feb 1960
----------------------------12: Lori Ann Sands 10 Jan 1963
-------------------------------- John Edward Lane 23 Jul 1961
------------------------11: Joyce Elaine Fike 27 Jul 1933 –
---------------------------- Robert Haney Houston 17 Jan 1920 -- 19 Jun 2000
----------------------------12: Robert Scott Houston 23 Mar 1961 --
--------------------10: Nellie E. Fike 28 Jul 1907 -- 1942
------------------------ James Clark
--------------------10: Emmerson Garrett Fike, Senior 07 Jan 1910 -- Oct 1982
-------------------------Jean M. Combs
------------------------11: Emmerson Garrett Fike, Junior 08 Oct 1945 -- Sep 1997
------------------------11: James Luther Fike 18 Oct 1946 --
------------------------11: Daniel Eugene Fike Mar 1948 --
------------------------11: Kenny Fike   -- RVN
--------------------10: Fred W. Fike Abt. 1913 -- 03 Jan 1991
--------------------10: Iva M. Fike
------------------------- _____ Dean
------------------------11: Glen Dean
--------------------10: Park R. Fike 1918 -- Apr 1982
------------------------ Genevieve Frances Ault
--------------------10: Warren Calvin Fike, Senior 21 Mar 1921 -- 02 Oct 1974
------------------------ Rose Salvatore
------------------------11: Beverly Ann Fike
------------------------11: Cheryl Fike
------------------------11: Kenneth Wayne Fike
------------------------11: Warren C. Fike, Junior
--------------------10: Leona Estella Fike 12 Mar 1924 --
------------------------ Wilbur Henry Sausman Sep. 5, 1919 -- Jun. 18, 1997
------------------------11: (daughter) stillborn
------------------------11: Janice Sausman
------------------------11: William Sausman    
--------7: Thomas Savage  2-3-1827  -- 2-8-1905.  Civil war vet. (Listed as; Ur Thomas Savage in the records of James Friend. Olsen identifies him as; U. Thomas, on
page 183. Civil War records list him both ways - Ur Thomas and Thomas Ur.) (Note that there are two Thomas Savages with wife, Elizabeth in the 1860 census. Joyce
Glover believes they were the same individuals. If they were not, then perhaps some of the children listed below are the children of the other Thomas Savage. See Note
#1 at the end of this paper.)
------------Elizabeth Evans  7-26-1830  -- 1-20-1906 (From South Wales at age 13). (1900 census reports her as the mother of 13 children while 15 are listed here).  
------------8: David Harrison Savage  10-17-1848 MD
----------------Jerusha Cole, m. June 1872.
------------8: Thomas Herm Savage  1853, MD.
------------8: Benton Savage  1855, MD. (died in youth)
------------8: Martha A. Savage  1856, MD.
----------------Alfred L. Jenkins (Civil war vet) 1843. Son of Levi and Elizabeth Friend Jenkins
----------------9: Samuel Jenkins 8-26-1874.
--------------------Mintie or Minta or Minnie Elizabeth Smearman 7-29-1878 MD.
--------------------10: LLoyd Jenkins
------------------------Ethel Glass
------------------------11: Alverta Jenkins
----------------------------Rob Thompsom
------------------------11: Nina May Jenkins
---------------------------- 1st Norval Frazee, Jr.
---------------------------- 2nd Carl Lowdermilk
--------------------10: Ervin or Irvin William “Bud” Jenkins 9-10-1909
------------------------Iva Burdette Bernard 11-8-1914
------------------------11: Elaine Jenkins
------------------------11: Coit Jenkins
------------------------11: Joann Jenkins
----------------------------Clarence Custer
------------------------11: Janet Jenkins
------------------------11: Joyce Jenkins
--------------------10: Robert C. Jenkins 2-4-1913 -- Died young in a wagon accident.
--------------------10: Harold Jenkins
------------------------Mary Brown
------------------------11: Edna Jenkins
----------------------------Ray Artice
------------------------11: Garland Jenkins
----------------------------Dawn _____
----------------9: Hester Jenkins 1879
--------------------Charles McDonald
--------------------11: Raymond McDonald
----------------9: Adolphus Jenkins (did not marry)
----------------9: Orval John  “Red” Jenkins
--------------------Mary Catherine Smearman (cousin to Sam’s wife)
--------------------10: Helenmarie -- died at 2 years of whooping cough
--------------------10: Bruce George Jenkins
------------------------Evelyn Bosley
--------------------10: Oselane Mae Jenkins
------------------------William Fisher
--------------------10: Margaret Louise Jenkins
------------------------Ralph Garlick
--------------------10: Elouise Grace Jenkins
------------------------William Martz
--------------------10: Ina Claire Jenkins
------------------------Robert Hicks
----------------9: Laura Jenkins
--------------------William McCombie
--------------------10: Arthur (son of Walter Ross)
--------------------10: Violet
------------------------Orval Coddington
--------------------10: Albert Alvie
------------------------Gladys Shipley
----------------9: William Jenkins
--------------------Vergie Teets
--------------------10: Mary Catherins Jenkins
------------------------Harry Shaffer
--------------------10: Irene (Dolly) Jenkins
------------------------ _____ Wilson
------------8: Maria Savage 1858, MD. (Three of the children born in 1858???)
------------8: Thomas Benton Savage 1858, MD.
------------8: Sabina (Sabrina ?) Savage  1859, MD.
------------8: William Savage 1861, MD.
------------8: William V. Savage 1862, MD.
------------8: Emily Jane Savage 1866, MD.
----------------Elmer Trembly
----------------9: John Trembly
------------8: George D. Savage 1858, MD. d. 1913. (1864 -- 1941 from headstone  reports by Ros Listernick)
----------------Lydia E. Fearer 1877 (1878 -- 1933 from headstone per Ros L.)
------------8: Wesley Savage 1869. MD.
------------8: Arthur J. Savage 9-17-1870, MD.
----------------Jinnie Bell Railey 1877, MD.
------------8: Freeman Savage 4-6-1873, MD. d. 6-10-1942-43.
----------------1st. Savilla Glover b. 7-7-1879, Pres. Co. WV. d. 5-25-1975.
----------------9: Beulah Evelyn Savage  12-29-1903 -- 2-23-1998     ¬
--------------------Sidney Solomon Listernick  b. 1898 Russia, d. 5-22-1980 Mass.   
--------------------10: Mildred Mae Listernick  6-27-1926 Middlesex Co. Ma.
------------------------Maurice Reutter  4-13-1928
--------------------10: Stanley Edwin Listernick  8-9-1928, Middlesex Co. Ma.   
------------------------Roselyn Ratcliff  6-4-1932
------------------------7.Glenn Stewart Listernick  11-29-1956
----------------------------Denise Estelle Wash  
----------------------------12: Carolina Elizabeth Listerenick  6-13-1992
----------------------------12: Christina Michelle Listernick  10-19-1996
------------------------11: Debra Mae Listernick  11-16-1958
------------------------11: Julie Evelyn Listernick  10-1-1960
----------------------------Ruben Felipe Estrada Camara
----------------------------12: Nicole Isabella Estrada  12-4-1990
----------------------------12: Brandon Listernick Estrada  8-14-1996
----------------9: Edith Savage 4-8-1905 -- 4-11-1905
----------------9: Gilbert William Savage  4-24-1906, Gar. Co. MD, d. 4-5-1978  
--------------------Mildred Leona Amos  3-21-1913, Mon. Co. WV
--------------------10: Paul Arthur Savage  8-7-1931
------------------------1st. Peggy Ellen White
------------------------11: Sherry Lee Savage
------------------------11: Ronald Arthur Savage
------------------------11: David Paul Savage
------------------------2nd. Lorraine Tabott
------------------------11: Jason Scott Savage
------------------------11: Julie Marie Savage
--------------------10: Wanetta Jean Savage 11-5-1933
------------------------Robert Keith Coffman
------------------------11: Thomas Randall Coffman
------------------------11: Bryan Keith Coffman
--------------------10: Patricia Gail Savage  11-8-1937
------------------------Carlton Edward Bowser, Jr.
------------------------11: Denice Gail Bowser
------------------------11: Loren Edward Bowser
------------------------11: Stacy Lynn Bowser
------------------------11: Judy Nicole Bowser
--------------------10: Thelma Leona Savage  7-6-1939
------------------------Richard Arden McClintock
------------------------11: Debra Frances McClintock
------------------------11: Ruth Leona McClintock
--------------------10: Gilbert Allen “Buddy” Savage  8-11-1941
------------------------1st. Sherry Stewart Savage
------------------------11: Richard Lane Savage (Assume children to be from 1st. marriage) RBS
------------------------11: Kimberly Ann Savage
------------------------2nd. Debra Ann Thomas
--------------------10: Roger Lee Savage  1-12-1950
-------------------------1st. Kathy Spinlow
------------------------11: Tracy Lynn Savage
------------------------2nd. Mary Louise Bateman
------------------------11: Tina Marie Savage   6-2-1975
--------------------10: Hugh William Savage   2-12-1952 -- 9-18-69
--------------------10: Denny Edward Savage   7-26-1954
------------------------- Fathered child with Teresa Baker
------------------------11: Tammy LouAnn Baker
------------------------1st. wife. Shirley Ann Moslick
------------------------11: Denny Savage, Jr.
------------------------11: Lisa Mae Savage Hack
----------------------------- Robert Hack
------------------------2nd. Elizabeth “Lybbie” Stover (no children from this union and now divorced)
----------------9: Mae Elizabeth Savage 11-10-1907
--------------------James Markley
--------------------10: Evelyn Markley
--------------------10: Elinor Sevilla “Sissy” Markley
--------------------10: Delores Markley
----------------9: Arthur Milton Savage 2-14-1910 Friendsville, MD. -- 1996
--------------------1st Gertrude Casteel
--------------------10: Stanley Cornelius Savage
--------------------10: Carole Adele Savage
--------------------2nd Rosalie Stahl 4-29-1927
--------------------10: Lydell Savage 4-15-1959
------------------------1st. Michelle Blum
------------------------11: Nichole Savage
------------------------11: Elizabeth Savage
------------------------11: Gabriel Lydell Savage 6-28-1979 (mother ?)
------------------------2nd. Vickie Rae - md July 1994
--------------------10: Debra Sue Mae Savage 10-4-1960
----------------9: Margaret W. Savage 10-1-1911 -- 5-1916
------------8: Effa (Effie) M. Savage 1875, MD.     
----------------Francis Jackson Thomas, 1874        
----------------9: Michael Christopher Thomas           
--------------------Wife unknown
--------------------10: Biological son - Wallace Arnold “Brant”           
---- ----7: Eliza E. Savage abt 1829
------------ Elisha Leighty
------------8: 1860 census reports two Elisha Leightys in Selbysport, MD.
--------------#1: Age 28 with wife Louisa and 3 children; Mary, 6; Sarah, 4; John, 2. Dwelling 1870, Dec. 8
--------------#2: Age 27 with wife, Eliza and 3 children; Eloiza, 7; Sarah, 5; John, 3. Dwelling 1936, Dec. 15
--------7: Elizabeth Jane Savage 1832     
------------Gabriel Friend 1826
------------8: Rosalie Friend 1853
------------8: Elizabeth Jane Friend 1855
------------8: Mary Friend 1860
------------8: Cordelia Friend 1861
------------8: Missouri E. Friend 1863
----------------Samuel Hoff 1843
------------8: Almedia or Almeda Friend 1867
------------8: Horace R. Friend 1868
------------8: Fannie Victoria Friend 1869/73
----------------Orval Clark Savage 7-7-1871 -- 1958
------------8: Mack (presumably, McClellen) Friend (did not marry)
--------7: Savilla Savage 12-25-1837 Gar. Co. -- 10-18-1912 Gar. Co.    
------------John H. Friend Jr. 12-26-1932 Gar. Co. -- 10-20-1904 Gar. Co. (Fowler lists birth in Pottsville, Carroll Co., OH.).
------------8: Sarah Jane Friend Oct. 1857 -- 1941
----------------Benjamin Franklin Friend 1855 -- 1939
----------------9: John R. Friend 1881
----------------9: Lydia Friend 1883
----------------9: Chester A. Friend 1885 -- 1969
--------------------Mary E. _____ 1904 -- 1967
--------------------10: Ola E. Friend 1927 -- 1964
--------------------10: Cecil R. Friend 1922 -- 1979
----------------9: William G, Friend 1886 -- 1975
----------------9: Roy F. Friend 1889    
------------8: Alpheus “Alfred” Cornelius Friend 1-3-1858 MD. -- 12-27-1949
----------------Sarah Elizabeth Brown 8-7-1861 -- 11-6-1921
----------------9: Blanche Mae Friend 4-15-1883 Gar. Co. -- 3-30-1963 Mon. Co. WV.
--------------------Curtis McClure Michael 1-13-1875 Pres. Co. WV -- 1-29-1941 WV.
--------------------10: Dorothy Evelyn Michael 9-2-1902 Gar. Co. -- 2-22-1948 WV.
------------------------Thomas Gerald Newlon 1-3-1900 Fay. Co. Pa. -- 10-23-1995
------------------------11: Dorothy Geraldine Newlon 4-7-1924 Mon. WV
----------------------------David Thomas Jackson 11-3-1924 Mon. -- 2-5-1983
----------------------------12: Cheryl Lynn Jackson 11-2-1945 Mon. WV.
--------------------------------_____ Malone
----------------9: Victoria Friend MD. 1884
----------------9: Claude B. Friend MD. 1885
----------------9: Aland or Alan Monroe Friend 2-11-1887 -- 1901
----------------9: Camie M. Friend Apr. 1889  MD.
----------------9: Floyd Friend Jan. 1891 MD.
----------------9: Charles Friend 9-5-1893 MD. -- 1912
----------------9: Goldie Friend Mar. 1894 MD.
----------------9: Alonzo Friend Aug. 1895 MD. -- 1976
----------------9: Rolly Franklin Friend 12-15-1896 MD. -- 1967
--------------------Nora E. _____ 1900 -- 1964
----------------9: Vernon Earl Friend Mar. 1900 MD.
------------8: Mary Jeanette Friend 8-9-1859 MD. -- 12-29-1923 MD.
----------------Joab Friend 1858
----------------9: Frances Maude Friend 1879
--------------------Homer Delphia Custer 1875 -- 1913
--------------------10: Charles Arthur Custer, Sr. 12-13-1897 Gar. Co.-- 3-23-1939 Detroit, MI.
------------------------Martha Clara Ogger 1904 -- 1974
------------------------11: Charles A. Custer, Jr.
----------------------------Mae Audrey Cecil
----------------------------12: Deborah Custer 1959 -- 1982
----------------------------12: Barbara E. Custer Vaillancourt
--------------------10: Virginia Alice Custer
--------------------10: Homer Ray Custer
----------------9: Estie M. Friend 1882
----------------9: Herbert Friend 1884
--------------------Mary Ann _____ 1890
--------------------10: Verna Friend 1908
--------------------10: Emory Friend 1909
--------------------10: Opal Friend 1911
--------------------10: Naomi Friend 1919
----------------9: Walter Ison Friend 1886 -- 1947
--------------------Blanche E. Camp 1894 -- 1963
--------------------10: Lavina O. Friend 1913
--------------------10: Walter W. Friend 1914
--------------------10: Wallis W. Friend 1914
--------------------10: Raymond Friend 1915
--------------------10: Delbert A. Friend 1916
--------------------10: Opal M. Friend 1917
--------------------10: Daniel W. Friend 1918 -- 1991
--------------------10: Paul Ison Friend 1919
----------------9: Cora C. Friend 1888
----------------9: Savilla J. Friend 1890
----------------9: Virginia M. Friend 1892
----------------9: Carl C. Friend 1894
--------------------Mary _____ 1902
--------------------10: Relova Friend 1917
----------------9: Encie E. Friend 1896
----------------9: Hazel V. Friend 1899
------------8: William H. Friend 8-19-1861 -- 11-15-1946 MD.
----------------Eliza Jane Umbel May 1865 MD.
----------------9: Gatha P. Friend Jan. 1884 MD.
----------------9: Orval C. Friend 3-10-1888 MD.
----------------9: Lloyd R. Friend Jun 1890 MD.
----------------9: Bertha O. Friend Oct. 1892 MD.
----------------9: Judson V. Friend 6-16-1895 MD.
--------------------Cora E. _____   1893
--------------------10: Mildred R. Friend 1916
----------------9: Oka S. Friend abt 1900
----------------9: Troy C. Friend abt 1903
----------------9: Bliss F. Friend abt 1905
----------------9: Leona Catherine Friend 7-9-09 Friendsville, MD.
--------------------Wilbur Hinebaugh, Sr. 1910
--------------------10: Claude Hinebaugh
--------------------10: Robert Hinebaugh
--------------------10: Ralph Hinebaugh
--------------------10: Wilbur A. Hinebaugh, Jr.
--------------------10: Anna C. Hinebaugh
------------------------_____ Fike
--------------------10: Ruth Hinebaugh
------------------------_____ Umbel
------------8: Rachael Friend 1864 MD.
------------8: Minnie Friend 1866 -- 1876
------------8: Melville “Melvey” G. Friend Dec. 1865 MD. -- 1941
----------------Maggie M. Sisler 1872 -- 1933
----------------9: Herman L. Friend 1890 -- 1948
--------------------Grace S. Chidester 1895 -- 1983
--------------------10: Wade Friend 1919 -- 1938
------------------------Gertrude Mae Friend 1922 -- 1989
------------------------11: Gerald Wade Friend 1938
----------------------------Doris Bridges 1942
----------------------------12: Stephen Vaughn Friend 1964
----------------------------12: Christopher Wade Friend 1967
----------------------------12: Alan Nathan Friend 1975
--------------------10: Norma G. Friend 2-26-1930 (Twin)
------------------------_____ Sparber
--------------------10: Norman L. Friend 2-26-1930 Hazelton, WV (Twin)
------------------------Joyce Ann Williams
------------------------11: Jennifer A. Friend
----------------------------_____ Abdel-Jalil
--------------------10: Thelma R. Friend
----------------9: Isabel Friend 1893
----------------9: Beason G. Friend 1895 -- 1952
--------------------Mollie M. _____ 1897 -- 1962
------------8: Della M. Friend 7-24-1871 -- 7-31-1879
------------8: Martha Friend Jul. 1873 -- 12-15-1949
----------------Jefferson Burch
------------8: Ulysses Grant Friend 11-8-1878 -- 8-2-1879
------------8: Sherman Friend 4-18-1875 MD. -- 12-28-1925
----------------Ethel Minerva Kelly 9-24-1884
----------------9: Chauncey M. Friend 2-6-1904 Keeler Glade, MD or WV
--------------------1st. Olive _____
--------------------10: Chauncy Friend, Jr.
--------------------10: Janice Friend
------------------------_____ Ross
--------------------10: Betty Friend
------------------------_____ Humberson
--------------------10: Maurice “Dean” Friend
--------------------10: Bernard Friend
--------------------2nd. wife of Chauncy M.; Thyra _____
----------------9: Dayton C. or O. Friend 7-1-1907 Keeler Glade
--------------------B. Olive _____
--------------------10: Ronald W. Friend
--------------------10: D. Gene Friend
--------------------10: Charles L. Friend
--------------------10: Marvin N. Friend
--------------------10: Ramon M. Friend
--------------------10: Dale O. Friend
--------------------10: Larry K. Friend
--------------------10: Gary D. Friend
--------------------10: Darrell L. Friend
--------------------10: Barbara L. Friend
------------------------_____ Mandley
--------------------10: Juanita Friend
------------------------_____ Berney
--------------------10: Linda E. Friend
------------------------_____ Cameron
--------------------10: Janet S. Friend
------------------------_____ Riley
--------------------10: Carol A. Friend
------------------------_____ Wood
----------------9: Gladys Friend
----------------9: Inez Friend
--------------------_____ Slagle
----------------9: Ireta V. Friend 8-16-1921 Friendsville, MD.
--------------------Lewis Gittere
--------------------10: Edward Gittere
--------------------10: Roger Gittere
--------------------10: Margaret Gittere
------------------------_____ Frazee
------------8: Laura Friend 12-16- 1877 -- 4-6-1886 MD.
------------8: Elsie C. or, Clarissa Elsie Friend 2-29-1868 -- 12-20-1923
----------------James Frazee 1867----(This family reported by Delores Shade <tomde12@webtv.net> and Judy Sisler).
----------------9: Rhuie Frazee
----------------9: Alverta “Bertie” Frazee
----------------9: Orville Frazee
----------------9: Clarence Frazee
----------------9: Charles Frazee
----------------9: Lizzie Mae Frazee 3-6-1894
--------------------Andrew Jackson Sisler 1-4-1893 -- 7-12-1965
--------------------10: Ray Kenneth Sisler
--------------------10: Foster Sisler
------------------------Opal Blanche Frazee
------------------------11: Charlotte Louise Sisler 9-11-1945
----------------------------James Ray Darby 9-14-1941
----------------------------12: Cindy Louise Darby 12-21-1964
--------------------------------Randy Sailor
----------------------------12: Cathy Ann Darby 3-9-1967
--------------------10: Glen Roosevelt Sisler
------------------------Janet Uphold
--------------------10: Oma Irene Sisler
------------------------Wade Haigh
--------------------10: Ellen Lucille Sisler
------------------------Ray Smith
--------------------10: June Eretha Sisler
------------------------Guy Graham
--------------------10: Pauline Ardis Sisler
------------------------Winfred Friend
--------------------10: Earl Woodrow Sisler
--------------------10: Ward Orval Sisler 1-17-1913 -- 1-8-1970
------------------------Edna Merle Rodeheaver 8-3-1919
------------------------11: Dale Orval Sisler 7-16-1942
----------------------------Carol Ann Bowser
----------------------------12: Timothy Dale Sisler 9-15-1968
----------------------------12: Judy Ann Sisler 3-26-1970
--------------------------------Daniel Lee Sines 10-27-1972
--------------------------------13: Taylor Elizabeth Sines 1-13-1994
----------------------------12: Betty June Sisler 10-2-1946
----------------------------12: Don Eugene Sisler 1-18-1949
--------7: Mary “Polly” Savage 1841
-------------David Kent   (The 1841 birth year for Mary cannot be correct. In the 1850 census, Mary Kent, age 39, lives w/ David Kent, a Miller, age 39, in dwelling 336.
Living with them is Robinson Savage, age 8, and Mary Savage, age 85. Mary Savage Kent would have been born in 1811, most likely the daughter of Robinson T. Sr. and
Mary Savage. The 8 year old Robinson was the son of John R. Savage who lived eight houses away, and probably visiting his aunt and grandmother, Mary Savage. See
note at; Gen. 6. Female, between 1810 & 1820, below).
--------7: Robinson Savage 1842  (This would be the 8 year-old listed in the 1850 census with David and Mary Kent) (Civil war vet).
------------Mary J. Dawson
--------7: Mary Savage 1843
----6th. Gen: Robinson T. Savage, Jr.  Al. Co. abt 1800 d. 1839     
--------Sarah (Sally) Green Friend 2-25-1798 Sang Run, MD. -- 1882  
------------(Sarah married 1st cousin, John Simpson Friend after death of Robinson)         
--------7: Huldah Savage 1822 Sang Run. -- 1894
------------_____ Friend  
------------8: John Friend 1852   
------------8: Lucretia Friend 1857   (Note that both Huldah and Mariah are shown with children John and Lucretia, b. 1852 & 1857. Hoye reports that Huldah never
married. The researcher who reports these children with Hulda probably took the info from the 1860 census wherein Huldah (probably) had with her her niece and
nephew, children of Mariah).
--------7: Mariah L. Savage  1823 Sang Run, MD. (Fowler lists birth year, “abt 1835”).     
------------Jesse Friend  10-29-1829 –- 1-8-1895 MD. (2nd cousin to Mariah)         
------------8: John Ison Friend  5-20-1847
----------------1st. Rachael Frey  1846/49 MD.
----------------9: Elijah Friend  1872 MD
----------------9: Ira Friend  1874 MD
----------------9: Lisa Friend  1875 MD
----------------2nd. Mary Virginia “Jennie” Duckworth m. 1-16-1879 WV
----------------9: William Robert Friend 11-15-1883 – 9-7-1973
-------------------Iva Belle Scott
-------------------10: Nell Louise “Nellie” Friend 6-16-1926 WV – 2-28-2008
-----------------------William Edward Hall
-----------------------11: Tamara Louise Hall 9-2-1959
----------------------------Robert Frank Henderson  m. 6-14-1987
-----------------------11: (Son living)
---------------------------(Wife living)
-------------------10: Goldie Maxine Friend 3-5-1924 – 8-17-2011
------------------------Lewis Elliot Hall  
------------------------11: Six children
-------------------10: Kenneth Hale Friend 5-16-1917 – 3-23-1987
------------------------Leona Bonnell
------------------------11: Three children
-------------------10: Howard Claude Friend 5-16-1917 – 7-11-1975
------------------------Edith Stull
------------------------11: Three Children
-------------------10: Edward Ray Friend  d. 1968
------------------------Joann Boyce
------------------------11: Three children
-------------------10: George Warren Friend 5-7-1921 – 2-22-1989
------------------------Gwen Chapman
------------------------11: Four Children
----------------9: Calvin Rufus Friend  1-13-1880 – 6-30-1940
-------------------Rada Ratliff
----------------9: Lawrence Everett “Dit” Friend 2-28-1852 – 10-23-1961
-------------------Clella Vanscoy
----------------9: Hattie May Friend 9-20-1889 – 10-10-1920
-------------------Austin McKinney
----------------9: Bessie M. Friend  5-14-1888 – 10-13-1905
-------------------Thomas Collins
----------------9: Howard Herman “Doss” Friend 2-19-1886 – 1968
-------------------Louisa Hufford
----------------9: Ida “Pooch” Friend Feb 1892 – Aug. 1969
-------------------Homer Rogers
----------------9: Effie Myrtle Friend  1902 – 10-9-1925
-------------------William Cleavenger
------------8: Upton Friend  1854 MD.
------------8: Lucretia Friend  1857 MD.
------------8: Cecelia Friend  1859 MD.
------------8: Martha Friend  1860 MD.
------------8: Eliza Friend  1864 MD.
------------8: George Friend  1866 MD.
------------8: Marsalla/Marcellus Friend  1869 MD
--------7: Cornelius Ward Savage  1-12-1824 Sang Run, Al. Co. -- 1893/95     
------------Mary Ann “Polly” Friend  10-30-1830 – 6-23-1897 (2nd cousin of Cornelius)          
------------8: Martha Alice Savage  11-14-1846 MD. -- 1930 (Glover gives b. 9-14-46, d. Nov 1930)    
----------------1st. Benjamin Weimer  1846 – Oct. 1869 (Revised 3-2-2010. Earlier reported as Joseph Weimer.)
----------------2nd. Lucien Sleiger abt 1848.  Married about 1875.
----------------9: Elmer Ellsworth Weimer 4-17-1967
--------------------1st. Eliza A. Sloan abt 1874
--------------------2nd. Laura Isabelle Beeman 1901
----------------9: Homer Bruceton Weimer 1868
--------------------Mary Ellen “Molly” Glass 9-17-1875 MD.
----------------9: Charles R. Weimer  1874 – 1922 (Not possible if Ben Weimer died in 1869.)
----------------9: Josie Alice Weimer  1883 (Not possible if Ben Weimer died in 1869.)
----------------9. (Alan Farneth reports there were also several children with Sleiger.)   
------------8: Sarah E. Savage  9-3-1848 -- 1877 (Glover lists; b. 1-28-1848, d. 9-3-1877 and m. to Franklin Casteel)    
----------------Jesse W. Eusephus Harvey 12-11-1849 MD.
----------------9: Alberta Maude Harvey 12-6-1873
--------------------Albert Thomas Shockey 7-13-1866
--------------------10: Bertha Marie Shockey 3-8-1910
------------------------1st. Harry Edison White 7-30-1919
------------------------2nd. Austin E. White 12-23-1912
------------------------11: Betty Lou White 8-20-1929
----------------------------Carl Stalnaker 2-14-1928
----------------------------12: Kenneth C. Stalnaker
----------------------------12: Karen S. Stalnaker
--------------------------------_____ Maker
----------------------------12: Kay M. Stalnaker
----------------------------12: Janet Stalnaker
------------------------11: Thomas Edwin White 6-10-1934
----------------------------Donna Nell Burrell 6-10-1933
----------------------------12: Michael Andrew White 4-4-1965
----------------------------12: Deborah Kay White 7-8-1971
------------------------11: Sherman Eugene White 9-17-1936
------------------------11: Alberta Jane White 5-10-1937
----------------------------Stewart Edward Rice
----------------------------12: Richard Rice 7-26-1954
----------------------------12: Regina Rice 10-8-1955
----------------------------12: Kevin Rice 4-5-1946
----------------------------12: Steven Rice 3-29-1957
----------------------------12: Mary Ann Rice 5-11-1958
--------------------10: Jesse Boyd Shockey
--------------------10: Herbert Nay Shockey 9-7-1896
--------------------10: Luceta Blanche Shockey 9-15-1898
--------------------10: Augustus Earl Shockey 3-14-1900
------------------------Audrey Straighter
------------------------11: Earl Shockey
------------------------11: Woodrow Shockey
------------------------11: Homer Shockey
------------------------11: Charles Shockey
--------------------10: Edith Mae Shockey 1903
--------------------10: Ruby Glenora Hazel Shockey
------------------------Gale Alhiser
------------------------11: Bestrice Alhiser
------------------------11: William Alhiser
------------------------11: Gloria Alhiser
------------------------11: Garnetta Alhiser
------------------------11: Peggy Alhiser
------------------------11: Sonny Alhiser
--------------------10: Veva Shockey
--------------------10: Lester Burl Shockey
-------------------------Beulah McCabe
--------------------10: Sherman Harold Shockey, Sr. 3-16-1913
------------------------1st. Anna Mae Christopher 1922
------------------------11: Richard Lee Shockey Aug 1938
------------------------11: Carolyn Ann Shockey 6-28-1942
----------------------------Gary Zickafoose
------------------------2nd wife of Sherman Harold - Gloria Jane Giles
------------------------11: Sharon Ann Shockey 3-28-1950
------------------------11: Sherman Harold “Skip” Shockey, Jr. 11-2-1952
----------------------------Diana L. Zickafoose
----------------------------12: Andrew N. Shockey 9-7-1983, Oakland, MD.
----------------------------12: Steve Shockey
----------------------------12: Jeremiah Shockey
------------------------11: William Lee Shockey 12-14-1954
------------------------11: Becky Denise Shockey 8-22-1955
----------------------------Ronald Unger, Sr.
----------------------------12: Ronald Unger, Jr. Mar. 1974
------------------------11: Deborah Jane Shockey 2-8-1957
------------8: Sophia K. Savage  12-30-1849 -- 8-30-1924     
----------------Issac W. Abernathy  4-28-1852
----------------9: Arthur Simon Abernathy 3-8-1874
--------------------Ida May Moreland Jun. 1876
----------------9: Elma C. Abernathy 1878 -- 1879   
------------8: Mary Ella Savage  12-28-1854 MD. -- 10-21/29 or 1932     
----------------Edward Nathaniel Casteel 12-20-1858, Sang Run, MD.  – 1-23-1903
----------------9: Asa L. Casteel 2-23-1880 MD.
----------------9: Dolly B. Casteel 11-9-1882
----------------9: Vespa Josephine Casteel 6-9-1884 -- 1953
--------------------Vernon Meshach Hoye 11-21-1883 Hoye Run, WV.  -- 1970
--------------------10: Genevieve Josephine Hoye 9-15-1906 McHenry, MD.
------------------------A. Bice
------------------------11: Donald Edwin Bice 2-11-1927 Pittsburgh, PA.
------------------------11: Norma Jean Bice 7-24-1928 Pittsburgh
--------------------10: Edward Franklin Hoye 9-8-1907 McHenry, MD.
------------------------Mildred R. Fike 3-27-1910
------------------------11: Helen Hoye 3-21-1929 Sang Run, MD.
------------------------11: Warren Dale Hoye 9-19-1930 Sang Run, MD.
--------------------10: Thelma Pearl Hoye 1-20-1911 McHenry, MD.
------------------------Harland G. Reams
------------------------11: Glenene Elouise Reams 3-31-1929 McHenry, MD.
------------------------11: Harland Lynn Reams 5-19-1931
--------------------10: Yvonne Wilma Hoye 10-13-1913 McHenry, MD.
------------------------Randall Wayne Friend 2-28-1910 Friendsville, MD. -- 1991
------------------------11: Janet Yvonne Friend 5-10-1934
----------------------------Charles Maust, Jr. 2-21-1930
--------------------10: Roland Dale Hoye 7-3-1918 McHenry, MD.
----------------9: Ruby Casteel  Sep 1885
------------------- _____ Lewis
----------------9: Edward C. Casteel  Sep 1887 -- 1958
----------------9: Stanley Morris Casteel 5-12-1891 Oakland, MD – 6-26-1984
-------------------Daisy Myrtle Bowman 3-1-1894, Morgantown, WV – 12-7-1990
-------------------10. Eleanor May Casteel 5-30-1929 Terra Alta, WV
----------------9: Alva Maude Casteel Oct 1894
------------------- _____ Nedley
----------------9: Harold Sherman Casteel Aug 1897
----------------9: Gladys Casteel May 1899
--------------------Edward Peak
------------8: Lavinia Savage  9-22-1856  -- 1857     
------------8: Melissa Elizabeth Savage  1-5-1857 Sang Run, MD. -- 11-17-1938     
----------------William Robert Cross 12-19-1861 Somerset, Co., PA. -- 1942     
----------------9: Anna A. Cross 6-10-1890    
--------------------John Hartman     
----------------9: Bertha May Cross  3-26-1886 Swallow Falls, MD. -- 1976   
--------------------Alvery (Alvey?) Blaine Wilburn 9-26-1881 McHenry, MD. -- 1965  
--------------------10: Bessie Gertrude Wilburn 6-1-1905 McHenry -- 1972   
------------------------Vernon Clay Beachey 9-14-1907 -- 1990
------------------------11: Ronald L. Beachey  8-15-1939 Grantsville, MD.
----------------------------Ellen Norene Rafferty
----------------------------12: Donald Steven Beachey
----------------------------12: Tammy Louise Beachey
--------------------------------_____ Gunter
--------------------------------_____ Ament
------------------------11: William Vernon Beachy 1930
----------------------------Betty K. Brenneman
------------------------11: Carl R. Beachey
------------------------11: Eugene D. Beachey
------------------------11: Marvin F. Beachey
------------------------11: Harold G. Beachey
------------------------11: Richard A. Beachey
------------------------11: Mary L. Beachey
----------------------------_____ Gouge
------------------------11: Kathleen Beachey
----------------------------_____ McGregor
--------------------10: Russell Edward Wilburn 1906
------------------------Elva Bowman 1910
--------------------10: Edna Alice Wilburn 1908
------------------------E. Harold Woodward
--------------------10: Mary Ivadell Wilburn 4-23-1911Hoyes Run, MD. -- 1972
------------------------Paul Goehringer 1-20-1909 -- 1978
--------------------10: Reed Stanwood Wilburn 4-8-1913 Hoyes Run, MD. -- 1944
--------------------10: Neva Evelyn Wilburn 1915
------------------------Melvin George 1-6-1912 -- 1971
--------------------10: Helen Virginia Wilburn 1925
------------------------James Andrew “Bud” Rodeheaver 8-26-1925 Friendsville, MD.
------------------------11: Ernest Rodeheaver
------------------------11: Reed Rodeheaver
------------------------11: Jack Rodeheaver
------------------------11: Robert Rodeheaver
------------------------11: John Rodeheaver
------------------------11: Stephen Rodeheaver
------------------------11: Gregory Rodeheaver
------------------------11: Mary Rodeheaver
----------------------------_____ Glotfelty
------------------------11: Connie Rodeheaver
----------------------------_____ Hayhurst
--------------------10: Mabel Melissa Wilburn 1919 (See descendants under William Arnold Savage of Thomas Ward Savage).
------------------------William Arnold Savage 9-12-1917 Gar. Co. -- 1978
----------------9: Bessie Maude Cross 4-14-1888     
--------------------1st. George Felton           
--------------------2nd. Harry Mills     
--------------------3rd. Walter William Riley     
--------------------10: Kenneth Riley     
------------------------Betty Sodor     
--------------------10: Emerson Riley     
------------------------Hazel Burket     
--------------------10: Moral Riley     
------------------------Alice Pearson     
--------------------10: Joseph Riley     
------------------------Victoria Florenz     
--------------------10: Burton Riley     
------------------------Edith allen     
--------------------10: Harvey Riley     
------------------------Alpharetta Gregg     
--------------------10: Felice May Riley 19 Sept, 1906     
------------------------Edward Gustav Johnson     
------------------------11: Jean Johnson     
----------------------------1st. Russell Anderson     
----------------------------2nd. Tim McClauglin     
------------------------11: Donald Johnson 4 Mar, 1934  -- 3 Nov 1990     
----------------------------Charlotte Stein     
------------------------11: Carol Ann Johnson     
----------------------------Wesley Milward     
------------------------11: Edward Gustav Johnson     
----------------------------Caroline Flowers     
----------------------------12: Caprice Johnson  9 Nov, 1961     
--------------------------------1st. Robert Harm     
--------------------------------2nd. Joseph Arenth     
----------------------------12: Edward Gustav Johnson 2 Oct, 1962     
--------------------------------1st. Karen Black     
--------------------------------2nd. Jennifer Voke     
----------------------------12: Kerstin Johnson 29 Oct, 1964     
--------------------------------Jim Steininger     
----------------------------12: John Eric Johnson 9 June 1970     
--------------------------------Lisa Tomasko   
------------8: Norman V. Savage  4-13-1859 Sang Run, MD. -- 1867 (Glover lists, b. 8-18-60, d. 12-16-67)     
------------8: Theresa Alberti Savage  4-20-1862 -- 1941(or 1947)     
----------------Lafayette DeWitt   4-1-1862
----------------9: Fred W. DeWitt 2-4-1886 -- 1973
--------------------Ersie R. _____ 1887
----------------9: Nellie M. DeWitt Jan 1888
----------------9: Emma (or Alma or Elma) A, DeWitt Feb. 1893
----------------9: Mary Alice DeWitt Mar 1890 (Fowler lists birth year as 1879).
--------------------Jacob Ayersman 1864
----------------9: Lloyd L. DeWitt 10-4-1895 -- 1975
----------------9: Troy Bruce DeWitt 9-7-1898  -- 26 Oct 1974
--------------------Cora Mae _____ 1-1-1904
--------------------10: Donald DeWitt
-------------------------Laura Annabelle DeWitt
--------------------11: Ronald C. DeWitt (sent to him for more information)
-------------------------Betty J. Mosser
------------------------12: Amy DeWitt
-----------------------------Terry Beckman
------------------------12: Jessica Beckman
------------------------12: Jason DeWitt
--------------------11: Kenneth Lee DeWitt
-------------------------Connie Lynn Ferguson
-------------------------12: Janet Lynn DeWitt
-------------------------12: Jason Lee Sisler
-----------------------------13: Jayden Lynsey Sisler                
-------------------------12: Brian Wayne DeWitt
------------------------------Sharron Bolyard
-----------------------------13: Kierra Nicole DeWitt
-----------------------------13: Cody Waume DeWitt
---------------------11: Tammy Lynn DeWitt
---------------------------Rick Lowdermilk
---------------------------12: Malony Lowdermilk (Deceased)
-------------------------------Glen Wilson
---------------------------12: Ashley Wilson
-----------------------11: Timothy Bruce DeWitt
----------------------------Barbara Roberts          
----------------------------12: Christy DeWitt
---------------------------------Scott Dawson
---------------------------------13: Macie Dawson
---------------------------------13: Peyton Dawson                         
------------------------11: Robin DeWitt
-----------------------------Gary Niner
-----------------------------12: Brent Niner
----------------------------------Alayna         Shaffer
-----------------------------13: Gavin Brent Niner 6-19-08
------------------------11: Donald Keith DeWitt
-----------------------------Diane Walkling        
-----------------------------12: Donna DeWitt
-----------------------------12: Dannielle DeWitt
---------------------------------13: Donald DeWitt ( or 12?)                
----------------9: Foster Orval DeWitt 6-26-1903 -- 1971
------------8: Sherman Grant Savage   3-11-1864 Sang Run, MD.  -- 6-8-1946     
----------------Martha Catherine Cross  6-7-1872 Swallow Falls, MD.  – probable 1970        
----------------9: Paul Basher Savage 12-12-1890  Sang Run -- 1938   
--------------------1st. Sadie C. Wilburn 1891/92
--------------------2nd. Lena (or Lera) Weber 8-20-1892 Baltimore, MD. – 1950
--------------------10: James Savage
------------------------Leona Wright
------------------------11: Lyn Savage
-----------------------------Ed Remley
----------------9: Thomas Ward Savage  4-1-1892 Sang Run  -- 1980   
--------------------Della  A. Rodehaver  10-21-1895 -- 1962  
--------------------10: Ward Edward Savage  7-2-1915 Sang Run – 7-24-1988   
-------------------------Geraldine Alma DeWitt 5-16-1923
-------------------------11: Ruth Ann Savage 5-29-1939 – 7-29-1939
-------------------------11: Thelma Rae Savage 1-2-1941 (Never married)
-------------------------11: John Edward Savage, Sr. 2-13-1943
------------------------------Trudy Kay Mosser 1943
------------------------------12: John Edward Savage, Jr.
-----------------------------------Ethel Collette DeWitt
----------------------------------13: Ward Scott Savage
----------------------------------13: Jacob Grant Savage
------------------------------12: Scherree Lynn Savage
-----------------------------------Douglas Kirk
-----------------------------------13: Ashlee Lynn Kirk
-----------------------------------13: Evan John Kirk, twin
-----------------------------------13: Eric James Kirk, twin
--------------------------11: Thomas Lester Savage 12-18-1945
-------------------------------Sandra Kay Bernard 1944
--------------------------11: Betty Fay Savage 7-18-1949
-------------------------------Terrell Clayton Frazee 7-14-1942 (First wife; Annabelle Round, mother of Rodney Terrell Frazee)
-------------------------------12: Rodney Terrell Frazee 10-24-1966 (Step son of Betty Fay)
-------------------------------12: Melinda Dawn Frazee 6-2-1978
------------------------------------Joshua Jeremy Grove 7-31-1978
------------------------------------13: Jackson Ward Grove 11-17-2001
--------------------------11: Billy Ward Savage 5-24-1955
-------------------------------1st Karen Sue Halderman
-------------------------------2nd Adelaide McCartney (Beitzel)
-------------------------------12: Step child, Guy Paull Beitzel
-------------------------------12: Step child, Zachary Miles Beitzel
--------------------10: William Arnold Savage 9-12-1917 Gar. Co. -- 1978    
--------------------------Mabel Melissa Wilburn 1919
--------------------------11: Kenneth William Savage 1939
--------------------------------Lorraine K. Gordon
-------------------------------12: Angela Kay Savage
-------------------------------12: Dyanne Savage
--------------------------11: Sandra Ann Savage 1940
-------------------------------Paul William Baier
-------------------------------12: Paul William Baier, Jr.
------------------------------------1st. Deborah Shaffer
------------------------------------2nd. Christine Winters
------------------------------------13: Michelle Lee Baier
------------------------------------13: Angela Baier
------------------------------------13: Ashley Nicole Baier
-------------------------------12: Johnny Lee Baier 1958
------------------------------------Tracy ____
------------------------------------13: Brooke Leigh Baier 1990
------------------------------------13: John Paul Baier 1992
--------------------------11: James Arden Savage 1942
-------------------------------Mary Josephine Lewis 1945
--------------------------11: Barbara Ellen Savage 1943
-------------------------------Edward Ernest Ullery 1940
--------------------------11: Gary Richard Savage 1948
-------------------------------Kathryn Louise Lewis 1950
-------------------------------12: William Richard Savage
-------------------------------12: Heather Melissa Savage
--------------------------11: Sherman Lee Savage 1950
-------------------------------Terry Sue Fike 1954
-------------------------------12: Jason Lee Savage
-------------------------------12: Jeremy Scott Savage
-------------------------------12: Brian Michael Savage
-------------------------------12: James Arnold Savage
--------------------------11: Dale Edward Savage 1953
-------------------------------Melva Lynn Rinker 1958
-------------------------------12: Jinnifer Dawn Savage 1970
-------------------------------12: Amanda Nicole Savage 1970
--------------------10: Robert Jackson Savage 7-17-1921 Sang Run     
--------------------------Leota B. Bray
--------------------------11: Ronald Savage
-------------------------------Rita O’Brian
-------------------------------12: Misty Dawn Savage
--------------------------11: Elizabeth Ann “Libby” Savage 1930 (Fowler lists birth date as 1-6-44).
-------------------------------1st. Ellsworth Savage
-------------------------------2nd. Joseph T. Healy, Sr.
-------------------------------12: Joseph T. Healy, Jr.
-------------------------------12: Pamela L. Healy
------------------------------------_____ Hinkle
--------------------10: Donald Lee Savage 1935    
-------------------------Arretta (or Arvetta) Marie Bell 1938
-------------------------11: Kevin Lee Savage 1957
------------------------------Renee Teresa Sheally 1959
------------------------------12: Andrea Renee Savage 1983
-------------------------11: Kayla Ann Savage 1961
------------------------------Carl Michael Cathell 1952
------------------------------12: Brian Mitchell Cathell 1983
------------------------------12: Daniel Barrett Cathell 1884
-------------------------11: Gregory Scott Savage 1962
------------------------------Rhonda Lynn Harvey 1964
-------------------------11: Marsha Christine Savage 1964
---------------------10: Thomas Elwood Savage 7-28-1930 –8-21-2008   
---------------------------Juanita Ruth Friend 11-21-1928 -- 3-3-1994
-------------------------11: Juanita Marie Savage------- - B.D. 12/07/??----- - 12/07/??
-------------------------11: Dennis Elwood Savage B.D. 01/27/56
-----------------------------1st Katherine Paugh
-----------------------------2nd Margo Butler
-----------------------------12: Johni Savage B.D. 06/20/74
-----------------------------12: Jamie Savage B.D. 01/21/76
-----------------------------12: Jay Savage B.D. 11/17/77
------------------------11: Steven Grant Savage B.D. 02/17/57
-----------------------------Valarie Wilburn B.D. 01/05/59
-------------------------11: Connie L. Savage  B.D 11/01/59
------------------------------1st Robert Miller B.D. 01/19/42
-----------------------------12: Chelsea Miller B.D. 08/09/92
------------------------------2nd David M. Simmons B.D. 02/28/61
-------------------------11: Diane E. Savage B.D. 12/28/63
------------------------------1st Jeffery E. White ------- - d. 7-11-1999
------------------------------2nd Shawn Strawser
-----------------------------12: Stephanie M. White B.D. 03/17/82
----------------------------------James A. B. Browning III (divorced)
---------------------------------13: James B. Browning
----------------------------------13: Colton J. Browning
-----------------------------12: Joshua White B.D. 11/17/80
-----------------------------------Michelle Miller (divorced)
----------------------------------13: Justyn E. White
-------------------------11: Teresa A. Savage B.D. 03/16/66
-----------------------------Jeffery J. Hamilton (divorced)
-----------------------------12: Jonathan W. Hamilton B.D. 01/31/89
-----------------------------12: Kati D. Hamilton B.D. 07/28/91
-------------------------11: Eric D. Savage B.D 05/25/70 (sent to him for more information)
------------------------------Tracy L. Shank B.D. 12/29/??
------------------------------12: Lane R. Savage 10/27/99
------------------------------12: Bryn D. Savage 01/25/05
------------------------------12: Kade E. Savage 04/23/07  
-------------------------11: Juanita Marie Savage
--------------------10: Samuel Grant Savage 1939     
-------------------------1st. Norma Jean ______
-------------------------2nd. Patsy Mae ______
-------------------------Children (which mother is unknown):
-------------------------11: Warren Kim Savage
------------------------------Mary Combs
-------------------------11: Deborah Savage
------------------------------William Collins
------------------------------12: William Collins
------------------------------12: Robert Collins
-------------------------11: Regina Ann Savage
------------------------------Gary Johnson
------------------------------12: Christine Johnson
------------------------------12: Brittany Ann Johnson
-------------------------11: Karen Lynn Savage
------------------------------Billy Horton
-------------------------11: Stephen Grant Savage
------------------------------Sue Naughton
--------------------10: Doris Leota Savage  10-14-1919 Gar. Co. -- 1937   
-------------------------Woodrow Ward
-------------------------11: Elmer Lee Ward
--------------------10: Della Jean Savage     
-------------------------1st. Alfonzo Pluto Barello, Jr. 1-11-1926 -- 1973
-------------------------2nd. Woodrow Ward
-------------------------11: Phillip Ward
-------------------------11: Larry Ward
--------------------10: Martha Jane Savage 5-31-1927
-------------------------1st. Eugene Neil Johnson 1924
-------------------------2nd. Percy Lawton 10-4-1908
-------------------------Children
-------------------------11: Eugene Neil Johnson, Jr.
------------------------------1st. Christine Louise Carlson
------------------------------12: William Eugene Johnson
------------------------------2nd. Myong Suk Yi (Po Han, S. Korea)
------------------------------12: Jennifer Marie Johnson
------------------------------------_____ Warren
------------------------------3rd. Maria Michelene Curtis
------------------------------12: Jessica Elizabeth Johnson
------------------------11: Robert Wayne Johnson (Contributor)
-----------------------------_____
-----------------------------12: Mary Elizabeth Johnson
--------------------------------- _____ DeMartino
------------------------11: Richard _____
------------------------11: Michael _____
------------------------11: David _____
------------------------11: Victoria Lynn Johnson
----------------------------_____ Simmons
------------------------11: Lorie _____
----------------9: William Robert Savage   15 Jan 1893  -- 1988 (Fowler lists birth date as 4-15-94).  
--------------------Nora A.(or Nora Myrtle) Rodeheaver 2-28-1895 Pres. Co. WV. -- 11-25-1972 (Nora’s brother, Troy A. Rodeheaver is Dani Griffin’s
grandfather)           
--------------------10: Nora Nadine Savage 5-18-1920    
------------------------Robert Francis Gay 1914
------------------------11: Robert William Gay
------------------------11: Timothy Bruce Gay
------------------------11: Thomas Kevin
------------------------11: Shirley Ann Gay
------------------------11: Barbara Dean Gay
------------------------11: Janet Elaine Gay
------------------------11: Diana Lynn Gay
------------------------11: Susan Kay Gay
--------------------10: Naomi Virginia Savage 3-16-1923
------------------------_______ Savage
------------------------11: Linda Savage
------------------------11: Denise Joan Savage 1953
----------------------------Joseph Francis Sullivan 1953
----------------------------12: Matthew Clary Sullivan 1982
----------------------------12: Jacob William Sullivan 1984
--------------------10: Sarah Juanita Savage 11-19-1928
------------------------Gerald R. Onesi  1925
------------------------11: Gerald Daniel Onesi 1954
----------------------------Jamie Ann Wallsel 1955
----------------------------12: Sara Ann Onesi 1981
----------------------------12: Daniella Onesi 1988
------------------------11: Joseph Edward Onesi 1957
----------------------------Debra Kelly
----------------------------12: Chelsea K. Onesi 1988
------------------------11: Kathy Ann Onesi 1959
--------------------10: Linda (per Dani Griffin)                 
----------------9: Edward Harold Savage 11-28-1895 Sang Run, MD. -- 1976    
--------------------Anna Laura Huffman  2-5-1897 -- 1979
--------------------10: Joy Anna Laura Savage 8-01-1939 Uniontown, PA – 10-23-2002    
------------------------1st. Roland Ray Cully d. 7-31-1989
------------------------2nd. Patrick Mullen
------------------------11: Tammy Joy Cully 1960
----------------------------Richard Lee Miller
----------------------------12: Joshua Richard Miller 1984
----------------------------12: Rachel Laura Miller 1982
------------------------11: Scott Roland Cully 1961
------------------------11: Julie Lynn Cully 1963
------------------------11: Laurie Elizabeth Cully 1970
----------------------------1st Paul Simon Antoon 1961 (divorced 2003)
----------------------------2nd Raleigh Mark Gelosh (married 2006)
----------------------------12: Katelyn Cully Antoon
----------------------------12: Megan Rose Antoon
--------------------10: Lillian (adopted}     
--------------------10: Thelma (adopted)     
--------------------10: Mary (adopted)           
----------------9: Clarence Milford Savage   11-18-1897 Sang Run  -- Jan. 1988  
--------------------Delilah Elizabeth DeWitt 12-31-1901 Hoyes, MD. -- 1992           
--------------------10: Esther Alberta Savage  1920    
------------------------Robert Edward Goodenough  1922         
------------------------11: Lois Goodenough
----------------------------_____ Dalton    
------------------------11: Cheryle Goodenough 1954  
----------------------------Eugene Frank Ellis
----------------------------12: Kristi Ellis
----------------------------12: Sara Ellis
------------------------11: Timothy Goodenough 1955
----------------------------Pamela Kay Hogue
----------------------------12: Rachel Goodenough
----------------------------12: Elizabeth Goodenough
----------------------------12: Paul Goodenough
------------------------11: Lois Rae Goodenough 1950
----------------------------Stanley Wayne Daulton
----------------------------12: Ryan Daulton
----------------------------12: Eric Daulton        
--------------------10: Kathleen Savage 1921      
------------------------1st. Arnold J. Ray 6-4-1921 – 9-10-1970   From Knox, PA   
------------------------2nd Frank Hassinger         ¬
------------------------Children with Arnold Ray:           
------------------------11: Ronnie J. Ray 7-12-1941 – 7-24-1972    
----------------------------1st. Marge Hudson    
----------------------------2nd. Esther Hess
--------------------------------- Widowed and remarried to Tom Wagner.           
----------------------------Children with Marge Hudson:
----------------------------12: Colleen Ray
--------------------------------1st. John Heydt
--------------------------------13: Stephanie Heydt      
--------------------------------2nd. Mark Kocsi
--------------------------------13: Lauren Mishele Kocsi
--------------------------------13: Step child; Kevin Joseph Kocsi
--------------------------------13: Step child; Dana Rebecca Kocsi
--------------------------------13: Step child; Krystie Nariel Kocsi   
----------------------------Children with Esther Hess:           
----------------------------12: Rhonda Ray  
--------------------------------1st. Mike Mekosh
--------------------------------13: Mathew Michael Mekosh
--------------------------------13: Mirissia Mae Mekosh
--------------------------------13: Mark Mitchel Mekosh
--------------------------------2nd. David Green   
----------------------------12: Jill Ray   
-------------------------------- Dan Haines
--------------------------------13: Rachel Morgan (adopted)
--------------------------------13: Jacob Haines (adopted)
----------------------------12: Barbara Jean Ray  
-------------------------------- 1st. Craig Kirlin
--------------------------------13: Bryanna Rae Kirlin
--------------------------------13: Brittany Paige Kirlin  
--------------------------------2nd.  David Brickett
------------------------11: Robert Nelson Ray     
----------------------------1st. Liz _____     
----------------------------2nd. Debra           
----------------------------Children with Liz:           
----------------------------12: Georgand Ray     
----------------------------12: Robert Ray Jr.                 
------------------------11: Darlene Kay Ray     
----------------------------1st. Bill Nicholson    
----------------------------2nd. Paul Lederer
----------------------------3rd. John Atkinson           
----------------------------Children with Bill Nicholson           
----------------------------12: William Nicholson (Adopted by Lederer)   
----------------------------12: Kristi Nicholson (Adopted by Lederer)
--------------------------------_____ Troutman
--------------------------------13: Darek Andrew Troutman
--------------------------------13: Kailixa Ray Troutman          
----------------9: James Arthur Savage 3-2-1899 Sang Run     
--------------------1st. Leona Wright  4-2-1914 Altamont, MD.
--------------------10: Paul Walton Savage 3-25-1941 Oakland, MD.
------------------------Wife unknown
------------------------11: Marilyn Savage
------------------------11: Paula Savage
----------------------------_____ Davis
------------------------11: Sherry Savage      
--------------------2nd. Ruth Smouse--------
--------------------10: Helena Roberta Savage           
--------------------10: Paul (adopted)                 
----------------9: Steward Sherman Savage  5-5-1900 Sang Run – 8-12-1978   
--------------------Minnie Catherine DeWitt 10-25-1898 Hoyes, MD. – 1-6-1977          
--------------------10: Stanley Steward Savage  8-21-1921 – 11-30-2002          
------------------------Pauline Madge DeWitt 5-24-1926
------------------------11: Roger Lee Savage 8-6-1943
----------------------------1st Ellen Lee Saltzer 8-25-1946
----------------------------2nd June Sell Beckman 8-14-1952
----------------------------12: Brandy Beckman (stepdaughter)
---------------------------------Dennis Futch
---------------------------------13: Vanessa Futch (stepdaughter)
---------------------------------13: McKenzie Futch
----------------------------12: Brandon Beckman (stepson)
----------------------------12: Barry Arden Savage 11-28-74
---------------------------------Luciana Bishoff
------------------------11: Marsha Ann Savage 1-29-52 (sent to her for more information)
----------------------------Carroll Wesley Deem Jr. 10-22-52
----------------------------12: Melissa Renae Deem 11-17-81
---------------------------------Mark Sndyer
----------------------------12: Christopher Matthew Deem 5-13-87
--------------------10: Daniel G. Savage 7121-1934           
-------------------------Genevieve Evans 5-18-1937
------------------------11: Chiquita Lynn Savage
------------------------11: Terry Grant Savage
-----------------------------Diane (divorced)
-----------------------------12: Jacob G. Savage
------------------------11: Jeffery Lane Savage
----------------------------Joyce Elizabeth Pilkerton
-----------------------------12: Jeffery Lane Savage Jr.
-----------------------------12: Aaron Michael Savage
-----------------------------12: Daniel Leon Savage
------------------------11: Troy Lynn Savage
-----------------------------Peggy Cosner (divorced)
-----------------------------12: Brandie Lynn Savage
-----------------------------12: Kelsie Nicole Savage
--------------------10: Marlin Lee Savage           
------------------------Mary (Peck) Friend
------------------------11: Sarah Savage
----------------------------James Durst
----------------------------12: Timothy J. Durst
------------------------11: Diane Savage
-----------------------------Kevin Frazee
-----------------------------12: Jeremy Frazee
-----------------------------12: Chad Frazee
----------------------------------Douglas Tasker
-----------------------------12: Rebecca Tasker
-----------------------------12: Brittany Tasker
--------------------10: Dorothy M. Savage  2-5-1925         
------------------------Charles E. Thomas 8-4-1923 Selbysport, MD – 11-7-2000
------------------------11: Charles E. Thomas Jr.
---------------------------- 1st Delores Rainy (divorced)
-----------------------------2nd Erin Shaffer
----------------------------12: Robert Thomas
----------------------------12: Michael Thomas
------------------------11: James E. Thomas
----------------------------Mary Pat Bennett
----------------------------12: Timothy Thomas
---------------------------------Beth Farmer (Douglasville GA)
----------------------------12: Brent Thomas
---------------------------------Cara Raley (Leonardtown MD)
------------------------11: Dorothy Louise Thomas
-----------------------------Gary King (no record?)
-----------------------------William H. Sines
-----------------------------12: Jill Sines
---------------------------------Jamie Rodeheaver (sent to him for more information)
-------------------------------- 13: Jacquelyn Rodeheaver
---------------------------------13: Jared Rodeheaver
-----------------------------12: Kimberly Sines
----------------------------------Eric Yommer
---------------------------------13: Zachary Yommer
---------------------------------13: Kaitlyn Yommer
------------------------11: Debra Thomas
-----------------------------Gary King
-----------------------------12: Brian King
----------------------------------Melissa Baker
----------------------------------13: Calyb King
----------------------------------13: Carsyn King
------------------------------12: Jason King
----------------------------------Angela Glotfelty
--------------------10: Laura Annabelle Savage
-------------------------Donald DeWitt
-------------------------11: Ronald C. DeWitt
------------------------------Betty J. Mosser
------------------------------12: Amy DeWitt
-----------------------------------Terry Beckman
------------------------------12: Jessica Beckman
------------------------------12: Jason DeWitt
-------------------------11: Kenneth Lee DeWitt
------------------------------Connie Lynn Ferguson
------------------------------12: Janet Lynn DeWitt
---------------------------------- Jason Lee Sisler
----------------------------------13: Jayden Lynsey Sisler                
------------------------------12: Brian Wayne DeWitt
-----------------------------------Sharron Bolyard
----------------------------------13: Kierra Nicole DeWitt
----------------------------------13: Cody Waume DeWitt
-------------------------11: Tammy Lynn DeWitt
------------------------------Rick Lowdermilk
------------------------------12: Malony Lowdermilk (Deceased)
-------------------------------Glen Wilson
------------------------------12: Ashley Wilson
-------------------------11: Timothy Bruce DeWitt
------------------------------Barbara Roberts          
------------------------------12: Christy DeWitt
-----------------------------------Scott Dawson
-----------------------------------13: Macie Dawson
-----------------------------------13: Peyton Dawson                         
--------------------------11: Robin DeWitt
-------------------------------Gary Niner
-------------------------------12: Brent Niner
----------------------------------Alayna         Shaffer
-----------------------------13: Gavin Brent Niner 6-19-08
--------------------------11: Donald Keith DeWitt
-------------------------------Diane Walkling        
-------------------------------12: Donna DeWitt
-------------------------------12: Dannielle DeWitt
------------------------------------13: Donald DeWitt ( or 12?)
----------------9: Mary Ethel Savage  12-1-1901 Sang Run, MD – 3-12-2001 Oakland, Md
--------------------Joseph Columbus DeWitt, Sr. 5-14-1894 Gar. Co.          
--------------------10: Ethel Marie DeWitt 1922
------------------------Kenneth Benjamin Keller 1-3-1914 Accident, MD.
------------------------11: Patricia Louise Keller 1947
----------------------------Arthur Clifton Matthias 1947
----------------------------12: Jason Clifton Matthias 1973
----------------------------12: Ryan Lynn Matthias 1976
------------------------11: Elizabeth Ann Keller 1952
----------------------------John Mark Lauster 1954
----------------------------12: John Mark Lauster 1988
----------------------------12: Clara Elizabeth Lauster
------------------------11: Benjamin Joseph Keller 1960
----------------------------Sherry Ann Smith 1964
----------------------------12: Riley Kathleen Keller 1990
--------------------10: Edward Clarence DeWitt 1924          
------------------------Ruby Elaine Mosser
------------------------11: Christopher Edward DeWitt
----------------------------Connie Goule Martin
----------------------------12: Shane DeWitt
----------------------------12: Shauna DeWitt
------------------------11: Sandra Elaine DeWitt
----------------------------Gary Lee Iden
----------------------------12: Greg Iden
----------------------------12: Kelly Iden
--------------------------------Michael Fulmer
--------------------------------13: Ayla Renea Fulmer
--------------------------------13: ____ Fulmer
--------------------10: Paul William DeWitt  7-21-1930 – 3-15-1976         
------------------------Beulah Lois Reams 12-25-1933
------------------------11: Debra Elaine DeWitt 11-30-1953
----------------------------1st David Henry Upole 1-31-1955
----------------------------12: Gary Allan Upole 4-20-1975
-------------------------------- Stacie Haskiell Dec 1975
----------------------------12: Carrie Lynne Upole 9-4-1977
--------------------------------Kevin Allan Luckel
--------------------------------13: Taylor Leigh Upole 10-18-1994 (Daughter of Carrie, step daughter of Kevin. Father, Jonathan Wayne Jackson)
--------------------------------13: Hannah Lynne Luckel 2-6-1999 (Twin)
--------------------------------13: Hunter Allan Luckel 2-6-1999 (Twin)
----------------------------12: David Henry Upole Jr. 2-2-1981
------------------------11: Paula Lynne DeWitt 12-20-1956
--------------------10: Alice Joyce DeWitt
------------------------1st. Ernest Clifford Strobel 10-13-1918 Hornell, NY.
------------------------11: Barbara Strobel
----------------------------_____ Gartz
------------------------11: Connie Strobel
----------------------------_____ Leary
------------------------11: Mary Strobel
----------------------------_____ DiSimone
------------------------2nd. James Wagner
------------------------11: Ronald Wagner
----------------------------Connie Butler
------------------------11: William James Wagner
----------------------------1st. Marlene _____
----------------------------2nd. Susie _____
------------------------11: David Lynn Wagner
----------------------------Joy Sisler
--------------------10: Joseph Columbus DeWitt, Jr.
------------------------Loretta Kisner
------------------------11: Douglas DeWitt
------------------------11: Colette DeWitt
----------------------------John Savage
----------------------------12: Ward Scott Savage 1990
----------------------------12: Jacob Grant Savage 1993
------------------------11: Barbara DeWitt
------------------------11: Lorie DeWitt
------------------------11: Marla DeWitt
----------------------------Mike Harvey
----------------------------12: Mike Harvey Jr.
----------------------------12: _____ Harvey
---------------------10: Elva Josephine DeWitt 3-21-1924 Sang Run -- 1994     
------------------------James Edward Frantz 1924
------------------------11: Paul Frantz  -- d. 1994
----------------------------Debra Filsinger
----------------------------12: Brandon Frantz
----------------------------12: Nathan Frantz
------------------------11: Edward Frantz
----------------------------Ann _____
------------------------11: Bradley Frantz 1955
----------------------------Diane Carrico
----------------------------12: Angela Frantz
----------------------------12: Joshua Frantz
----------------------------12: Samuel Frantz
----------------------------12: Thomas Frantz
------------------------11: Pamela Rae Frantz 1952 -- 1994
----------------------------Joseph Ashby
----------------------------12: James “Jamie” Ashby
--------------------------------Dixie _____
----------------------------12: Annie Ashby
----------------------------12: Katie Ashby
------------------------11: Mary Kay Frantz
----------------------------Andy Roper
----------------------------12: Emma Roper
----------------------------12: Hayley Roper
----------------------------12: Tess Roper
------------------------11: Sherry Elaine Frantz
----------------------------1st. Robert Crone
----------------------------2nd. Glenn Tolbert
----------------------------12: Kristin Crone
----------------9: Hazel Martha Savage 1-17-1907      
--------------------Owen Friend 6-9-1896 Friendsville, MD. -- 1972          
--------------------10: James Arthur Stanwood Friend 1925           
------------------------Martha Jordan Henderson 1924
------------------------11: Linda Susan Friend 1949 -- 1999
----------------------------Greg Bruce Smith 1950
----------------------------12: Jennifer Katherine Smith 1974
--------------------------------Brian Doyle
--------------------------------13: Logan Adrian Doyle 1997
--------------------------------13: Aiden Padraic Doyle 2001
----------------------------12: Brian Andrew Smith 1979
------------------------11: Kathy Jane Friend 1953 (Fowler lists birth year as 1950).
----------------------------Neil Sablatzky  1959
----------------------------12: Rachel Ann Sablatzky 1980
----------------------------12: Kristina Marie Sablatzky 1990
----------------------------12: Tenley Nadine Sablatzky 1991
----------------------------12: Daniel Owen Sablatzky 1992
------------------------11: Thomas Arthur Friend 1955
--------------------10: Elbert Barton Friend 1926     
------------------------Helen Louise Hillard 1921
------------------------11: Carol Amanda Friend 1951
----------------------------Robert Vincent Werder 1951
----------------------------12: Susan Louise Werder 1979
----------------------------12: Celeste Marie Werder 1980
----------------------------12: Joseph Werder 1981
------------------------11: David Owen Friend 1953
----------------------------Louise Anne Arnold 1953
----------------9: Beulah Leota Savage  3-7-1915 -- 1997 (Beulah claimed her father had 13 siblings. I’m showing 14. RBS)  
--------------------1st. ______ Bookie
--------------------2nd. Clinton Z. Mickle, Sr. 4-26-1902 Garland, PA.
--------------------10: Wanda Elaine (Bookie)? 1937
------------------------Joseph Kenneth Carpenter, Sr.
------------------------11: Joseph Kenneth Carpenter Jr.
------------------------11: _____ Carpenter
----------------------------John Wheeler
------------------------11: _____ Carpenter
------------------------11: _____ Carpenter
--------------------10: James Ellery Mickle 1940          
------------------------Nancy Lois Nichols
------------------------11: (Four children, names not known).
--------------------10: Daniel Deane Mickle 1945           
------------------------Eliza Jane Casner or Cosner
--------------------10: Dennis Rodney Mickle 1951          
------------------------Mary L. Spiker
------------------------11: Jonathan Mickle
----------------------------Amy _____
------------------------11: Nathan Scott Mickle
--------------------10: Clinton Z. Mickle, Jr.
--------------------10: Mary Ethel Mickle
------------------------_____ DeWitt
--------------------10: Hazel Mickle
------------------------_____ Friend
------------8: Celeste M. Savage  3-20-1866  -- 4-14-1866
------------8: Samuel Rosswell Savage  6-3-1867-68 --  11-17-1930 (Glover lists death at 11-14-1932)    
----------------Dora Alice Savage 1865-66 (Daughter of, 8: Winfield Scott Savage of, 7: Asa Savage of, 6: Lemuel Savage
----------------9: Virginia “Virgie” O. Savage Sept. 1892
----------------9: Prissa A. Savage Oct. 1895
----------------9: Susan “Susy” O. Savage Sept. 1897
----------------9: Edith V. Savage 1899
----------------9: Gustave R. Savage 1901
----------------9: Ellwood S. Savage 1903
----------------9: Cressa Alpharetta Savage 10-18-1895, Sang Run.
------------------- J.P. Scales
-------------------10: Peggy Scales
------------------------_____ Horne
------------------------11: Richard Horne
-------------------10: Evelyn Scales
------------------------_____ Vickers
-------------------10: Edith Scales
------------------------1st. Pratt Williams
------------------------2nd._____ Stewart (No children with Stewart)
---------------------------11: Larry Williams
---------------------------11: William Williams
---------------------------11: Elwood Williams
---------------------------11: Carolyn Williams 9-7-1935
---------------------------------1st. Richard Wasser Davis
---------------------------------2nd. _____Matthews (No Children)
---------------------------------12: Duane Davis 3-28-1958
---------------------------------12: Lisa Davis 9-6-1961
---------------------------------12: Scott Davis 3-5-1964
-------------------10: John Scales
------------8: David H. Savage  abt 1846. ???? (Headstone reads; June 16, 1857 - 11 yrs. Son of C.W. and M.A.)
------------8: Lucretia Savage 1852-54
------------8: Maria Jane “Jenny” or, Jinnie Savage 8-12-1851  -- 3-7-1879
----------------Franklin B. or D. Casteel 1857 (Glover lists husband as;  ? Harvey and Franklin Casteel m. to Sarah E.)
------------8: Orval Clark Savage  7-7-1871  -- 1958           
----------------Fannie Victoria Friend 1869
--------7: Amos Wesley Savage 8-31-1826 Sang Run -- 1901 (Fowler lists birth date 3-6-1826).    
------------Sophia Friend   1833 -- 1901 (2nd cousin to Amos)
------------8: Herbert A. Savage 5-1-1848 Sang Run
------------8: Mary Elizabeth Savage Dec 1849/50
----------------Winfield Scott Savage (See linage under (8)Winfield Scott Savage, of (7)Asa Savage, of (6)Lemuel Savage).
------------8: Ann “Annie” Louise Savage 3-29-1852 Sang Run -- 1929
----------------Rufus Mancel Enlow 3-28, 1858 Sang Run, MD -- after 1930.
----------------9: Basil Claude Enlow 11-26-1881 Sang Run, MD
----------------9: Hattie "Hallie" Grace Enlow 3-21-1884 Sang Run, MD
--------------------Albert Howard Danks 8-12-1877 Hazelton, Pres. Co., WV
--------------------10: Robert Danks 3-25-1906  Zion, IL
------------------------Wilma Marie Neal 6-23-1921 Zion, IL
------------------------11: Roberta Danks  6-24-1946 Waukegan, IL  
------------------------11: Nancy Danks 1-15-1948 Waukegan, IL
----------------------------Charles Maurice Cappon 7-10-1938 Hastings, MI
--------------------10: Aubrey L. Danks 1-2-1937 Hinsdale, IL
------------------------Barbara Ann Cocke 7-25-34 in Marion, IL
------------------------11: Michael Glenn Danks 6-13-1958 Waukegan, IL
----------------------------Karen Elizabeth Augensen 6-20-1958
----------------------------12: Sarah Lynn Danks 10-5-1988 Oceanside, CA
--------------------10: Judith L. Danks 7-19-1937 Chicago, IL
------------------------Chester Gibbs, Waukegan, IL
----------------9: Gilbert Ray "Gil" Enlow 2-25-1886 Hoyes or Sang Run, MD
--------------------Minnie Elben 11-18-1895
----------------9: Dolly Price Enlow 3-5-1888 Sang Run, MD
--------------------Charles Leonard Lyons 1884
--------------------10: Cynthia Beryl Lyons 6-8-1909 Zion, IL
------------------------Andrew Floyd Holcombe 8-6-1909
------------------------11: Dolly Ellen Holcombe 9-21-1928 Zion, IL
----------------------------Eugene Lewallen
----------------------------12: Albert Lewallen
----------------------------12: Floyd Lewallen
----------------------------12: Darel Lewallen
----------------------------12: Charles Lewallen
----------------------------12: Charlene Lewallen
----------------------------12: Monray Lewallen
----------------------------12: Roney Lewallen
----------------------------12: Jeanette Lewallen
--------------------------------Noel Marcado, Sr.
--------------------------------13: Pamala Marcado
--------------------------------13: Noel Marcado, Jr.  
--------------------------------13: Shanon Marcado
----------------------------12: Bonnie Lewallen
--------------------------------Michal Larriuz, Sr.  
--------------------------------13: Michal Larriuz, Jr.
--------------------------------13: James Larriuz
--------------------------------13: Lesa Larriuz
----------------------------12: Denece Lewallen
--------------------------------Joseph Hernandez, Sr.
--------------------------------13: Donato Hernandez
--------------------------------13: Joseph Hernandez, Jr.
--------------------------------13: Danilla Hernandez  
------------------------11: Ruth Annie Holcombe 12-6-1930 Zion, Waukegan, IL
----------------------------Billy Moore b: Jul. 1928
------------------------11: Floyd Rodney Holcombe 11-27-1932 Zion, or Waukegan, IL
----------------------------Eunice Rossmausen 11-1-1932
----------------------------12: Elizabeth Ann Holcombe 4-30-1960
----------------------------12: Frances Arlene Holcombe 6-28-1961
----------------------------12: Lucile Ban Holcombe
----------------------------12: Kelly Jean Holcombe
--------------------------------Patrick Short
--------------------------------13: Christopher Patty Short
--------------------------------13: Darcy Patty Short
--------------------------------13: Tray Short
------------------------11: Beryl Lucille Holcombe 5-30-1934 Zion, or Waukegan, IL
------------------------11: Alice Elizabeth Holcombe 8-21-1935 in Zion, or Waukegan, IL
------------------------11: Jean Marie Holcombe 12-6-1936 Zion, or Waukegan, IL
----------------------------Rudolph Samuel Copen, Sr. 7-27-1931
----------------------------12: Cynthia Jean Copen 2-22-1954
--------------------------------1st. Larry Wayne Nunn, Sr. 6-22-1951
--------------------------------2nd. Raymond Gallagher Stumpf, Sr.
--------------------------------13: Larry Wayne Nunn, Jr. 8-19-1970
--------------------------------13: Melissa Gail Nunn 6-15-1974
--------------------------------13: Raymond Gallagher Stumpf, Jr. 10-23-1978
----------------------------12: Anita Roseann Copen 6-10-1957
--------------------------------Kevin Gray Levin 8-1-1955
--------------------------------13: Johnathan William Levin 3-29-1977
--------------------------------13: Jeremy Gray Levin 3-3-1978
----------------------------12: Brenda Lee Copen 10-18-1961
----------------------------12: Rudolph Samuel Copen, Jr. 7-25-1966
----------------------------12: Tonya Marie Copen 5-30-1972
------------------------11: Virginia Mae Holcombe 6-1-1938 Zion, or Waukegan, IL
----------------------------Edward Combs 1-28-1934
----------------------------12: Marcella Combs
----------------------------12: Everette Combs
----------------------------12: Mary Combs
--------------------------------Robert Sopper
--------------------------------13: Ruth Ann Sopper
----------------------------12: Sandra Combs
----------------------------12: Maxine Combs
----------------------------12: James Combs
----------------------------12: Robert Combs
----------------------------12: Carla Combs  
------------------------11: James William Holcombe 3-10-1941 Zion, or Waukegan, IL
----------------------------Doris Arbanas  
------------------------11: Peggy Ann Holcombe 3-31-1949 Zion, or Waukegan, IL
----------------------------Manuel Flores  
----------------------------12: Christina Flores
----------------------------12: Daphne Flores
--------------------10: Basil Elwood Lyons 7-3-1911 Zion, IL
--------------------10: Anne Elizabeth Lyons 5-20-1914 Sang Run, MD
------------------------Alfred Lussier 5-16-1913
--------------------10: Percy Mancel Lyons 12-5-1915 in Zion, IL
------------------------Virginia Lacek  
------------------------11: Jean Marie Lyons
----------------------------Frederick James Russell
----------------------------12: Frederick Scott Russell
--------------------------------Mary _____  
--------------------------------13: Ryan Russell
----------------------------12: Barbara Elizabeth Russell
--------------------10: Dolly Price Lyons 3-27-1918 Zion, IL
------------------------11: Aubrey Lyons 1-2-1937
------------------------11: Judith Lyons 7-19-1937 Chicago
----------------------------_____ Gibbs
------------------------1st Husband of Dolly Lyons; Jim Weiser
------------------------2nd Donald Allbee 5-30-1917
------------------------11: Shirley Allbee 3-19-1941 Zion
----------------------------_____ Kropok
------------------------11: Donald "Sonny" Allbee 4-6-1942 Zion
------------------------11: Myrna Allbee 5-3-1943 Zion
----------------------------1st. _____ Gray
----------------------------2nd _____ Ivey
------------------------11: Carol Allbee 12-24-1947 Zion
----------------------------_____ Willings
------------------------11: Kenneth Allbee 4-6-1950 Zion
------------------------11: Larry Allbee 3-28-1955 Zion
------------------------11: David Allbee 4-27-1956 Zion
------------------------11: Richard Allbee 4-23-1957 Centralia, WA
------------------------11: Bonnie Allbee 6-4-1959 Zion, IL
----------------------------_____ Jesnes  
------------------------3rd Husband of Dolly Lyons:
------------------------Donald A. Henderson 3-20-Highwood, IL
------------------------11: Richard Henderson
------------------------11: Donald Henderson
----------------9: Lyman Sedwick "Sed" Enlow 10-4-1889 Sang Run, MD -- 1954
--------------------Helen Louise Hoye 3-1-1889 Sang Run, MD
--------------------10: William Claude "Claude" Enlow 1-16-1911 Sang Run
------------------------Mellie Cloteen Green 6-1-1910 Jacksonville, FL
--------------------10: Gilbert Bruce "Bruce" Enlow 10-22-1912 Sang Run
------------------------Ellen Mae Frantz 5-3-1923 Sang Run
------------------------11: Ruth Ann Enlow 5-13-1949 Cumberland, MD
----------------------------Vernon Eugene Sutton 12-4-1947 Norfolk, VA
------------------------11: Daniel Bruce Enlow 6-2-1951 Oakland, MD
------------------------11: Sarah Jane Enlow 7-19-1953 Oakland, MD
------------------------11: Elizabeth Ellen Enlow 12-13-1956 Oakland, MD
----------------------------James Michael Bolyard, Sr. 12-20-1953 Morgantown, WV
----------------------------12: James Michael Bolyard, Jr. 11-7-1983 Morgantown, WV
----------------------------12: Daniel Ray Bolyard 4-12-1991 Morgantown, WV
------------------------11: Rebecca Louise Enlow 9-27-1960 Oakland, MD or Kimgwood, WV
----------------------------Victor Carlton Friend, III
----------------------------12: Victor Carlton Friend, IV 7-20-1980 Morgantown, WV
----------------------------12: Tyler Justin Friend 1-18-1988 Morgantown, WV
--------------------10: Jessie Marie Enlow 3-30-1914 Sang Run, MD
------------------------Alvah Sherman Tillman 2-11-1914 Dormis, MO
------------------------11: Joyce Lorraine Tillman 1-29-1942 Waukegan, IL
----------------------------Alven Daryl Smith 7-3-1944 Zion, IL
----------------------------12: Andrea Joy Smith 1-9-1968 Waukegan, IL
------------------------11: Bruce Alvah Tillman 7-9-1945 Waukegan, IL
------------------------11: Norma Louise Tillman 2-20-1949 Waukegan, IL
----------------------------Gordon Flood 11-16-1946 Waukegan, IL
----------------------------12: Timothy Flood 7-21-1973 Waukegan, IL
----------------------------12: Gordon Douglas Flood 9-6-1974 Waukegan, IL
----------------------------12: Rebecca Helen Flood 6-29-1976 Waukegan, IL
--------------------------------Bentacourt  
--------------------------------13: Jeremy Andrew Bentacourt 10-28-1995
----------------------------12: Linda Lee Flood 10-26-1979 Waukegan, IL
--------------------10: Rufus Wilbur "Rudy" Enlow, 5-24-1915 Zion, IL
--------------------10: David Wesley Enlow 1-10-1919 Zion, IL
------------------------Lorena Ilene Krickbaum 4-12-1924 Bayard, NE
------------------------11: David Ronald Enlow 2-28-1943 Kenosha, WI
----------------------------Marilyn Means
----------------------------12: Cari Lynn Enlow 2-19-1964 Camp Pendelton, Oceanside, CA
--------------------------------1st. Daniel Wayne Challgren
--------------------------------2nd Mike Quinton 2-27-1958 Lancaster, CA
--------------------------------13: Cortney Dillon Quinton 12-13-1990 Lancaster, CA
----------------------------12: David Bryan Enlow 3-31-1969 Lakewood, CA
--------------------------------1st. Elizabeth Jo Tesse 10-17-1971 Phoenix, AZ
--------------------------------13: Sabrina Alexis Enlow 9-9-1995 Tualatin, OR
----------------------------2nd wife of David Ronald Enlow; Geraldine Ruth Bartholomew abt. 1943
----------------------------3rd wife of  D.R.N.; Crystal _____
----------------------------4th wife of   D.R.N.; Sharon Frazee  
----------------------------12: Ilene Faye Enlow  
----------------------------5th wife of David Ronald Enlow: Connie Frazee
------------------------11: Robert Wesley Enlow 8-6-1944 Waukegan, IL
----------------------------Nancy Claybrook Carroll  
----------------------------12: Raymond Wesley Enlow 2-12-1978 Palomar, CA
------------------------11: Lorena Dale "Lori" Enlow 6-17-1952 Waukegan, IL
----------------------------1st. Steven Louis Miranda
----------------------------2nd. Eric (#2) Saltmarsh b: Unknown in ?
----------------------------12: Hilary Loren Saltmarsh 7-10-1982 CA
----------------------------12: Samuel Allen Saltmarsh 4-8-1985 CA
----------------------------12: Brook Elizabeth Saltmarsh 8-3-1991 CA
--------------------2nd wife of David Wesley Enlow: Esther Dale Patton 9-22-1928 Kitzmiller, MD
--------------------3rd Wife of David Wesley (#2) Enlow: Vesta Pearl Harvey 4-4-1907 Deer Park, MD
--------------------10: Josephine Price "Josie" Enlow 1-8-1922 Zion, IL
------------------------Lee Forrest Jensen 6-15-1922 Waukegan, IL
------------------------11: Linda Lee Jensen 6-6-1945 Waukegan, IL
----------------------------1st. Sammy Lewis
----------------------------2nd. Lee (#2) Dunn b: December 18, 1944 in ?
------------------------11: Dale Wayne "Buddie" Jensen, Sr. 4-16-1947 Woodland, CA
----------------------------Judy Marie Waller 1-31-1944 Vallejo, CA
----------------------------12: Shonna Scott Jensen 7-13-1964 Grand Junction, CO
----------------------------12: Dale Wayne Jensen, Jr. 11-4-1972 Grand Junction, CO
------------------------11: Julia Ann Jensen 6-10-1950 Monterey, CA
----------------------------Lauren Paul Leasure 3-30-1945 Hooper, CO
----------------------------12: Josephine Michelle Leasure 10-8-1974 Grand Junction, CO
--------------------------------Bryen Schienk 9-3-1972 Montrose, CO
--------------------------------13: Jacob Paul Schienk 3-23-1993 Grand Junction, CO
--------------------------------13: Katelynn Makayla Schienk 12-19-1994 Grand Junction, CO
----------------------------12: Russell Seth Leasure 3-26-1979 Grand Junction, CO
----------------------------12: Matthew or Martin Paul Leasure 9-9-1982 Grand Junction, CO
------------------------11: Paul Edward Jensen 10-28-1960 Oakland, MD
----------------------------Mary Pewter 5-20-1971 Minneapolis, MN
----------------------------12: Rachel Lee Jensen 7-28-1986 Grand Junction, CO
----------------------------12: Forest Michael Jensen 6-29-1991 Grand Junction, CO
--------------------10: Robert Elwood Enlow 1-4-1925 Zion, IL
--------------------10: Paul Hoye "Pete" Enlow 6-13-1927 Zion, IL
------------------------Josephine Ard 2-9-1938 Tolono, IL
--------------------10: Helen Louise Enlow 10-4-1929 Zion, IL
----------------9: Marvin Elwood Enlow 2-21-1891 Sang Run, MD -- 1961
--------------------Encie Ellen Friend Sept. 1896 Friendsville, MD
--------------------10: Randall E. "Rand" Enlow 2-21-1915
------------------------Virginia Mae "Toodi" Johnson 4-21-1916
------------------------11: David Marvin Enlow 3-14-1936 Zion, IL
------------------------11: Larry Erwin Enlow 11-2-1940
----------------------------Dorothy _____
----------------------------12: Linda Ann Enlow 12-17-1965
----------------------------12: David Alan Enlow 3-14-1967
----------------------------12: Thomas Larry Enlow 11-28-1969
----------------------------12: Scott Francis Enlow 3-15-1972
------------------------11: Theodore Elwood Enlow 11-9-1943
------------------------11: William Allan Enlow 3-13-1954
----------------------------Cheryl Grayley
----------------------------12: Jason Brian Enlow 6-30-1976
----------------------------12: Robbie Alan Enlow 10-15-1977
------------------------11: Arnold Irvin Enlow 1-20-1956
------------------------11: James David Enlow 6-17-1961
--------------------10: Lenville Gilbert "Link" Enlow 2-4-1917
------------------------Gladys M. Best 7-6-1918
------------------------11: Ronald Arthur Enlow 5-24-1940
------------------------11: Marjorie Ann Enlow 3-13-1947 Waukegan, IL
----------------------------Robert B. Matthew 8-27-1946 Chicago, IL
--------------------10: Elbert Allen Enlow 12-30-1919
------------------------1st. Elizabeth "Libby" Price 3-12-1919
------------------------11: Patricia Gayle Enlow 11-29-1946
----------------------------_____  Davis
------------------------2nd wife of Elbert Allen Enlow: Jean _____
--------------------10: Arnold Erwin Enlow 4-23-1924 Zion, IL
----------------9: Jeremiah Wesley "Wes" Enlow 6-14-1892 Sang Run, MD -- 1962
--------------------Wilhelmina "Minnie" Ruth Otterbacher 11-18-1895 Perrysburgh, OH -- 1966
--------------------10: Ruby Sarah Enlow 6-10-1918 Zion, IL
------------------------1st. Henry Roscoe Roberts 3-19-1909 Elton, WI -- 1965
------------------------11: Harold Lynn "Butch" Roberts 10-29-1939 Zion, IL -- 1996
----------------------------Shiela Susann Wilson 4-27-1941 Zion, IL
----------------------------12: Kenneth Dwayne Roberts, Sr. 10-17-1963 Waukegan, IL
--------------------------------Kelly Lynn Searcy 12-11-1965 Ft. Dix, NJ
--------------------------------13: Kenneth Dwayne Roberts, Jr. 5-17-1986 Ventura, CA
--------------------------------13: Kasandra Lynn Roberts 4-13-1989 Valencia, CA
----------------------------12: James Leonard Roberts 11-22-1965 Simi Valley, CA
--------------------------------Stephanie Leigh Ponce 12-28-1969 Santa Paula, CA
--------------------------------13: Allen Leonard Roberts 7-7-1988 Fillmore, CA
--------------------------------13: Arren Reanne Roberts 5-8-1990 Fillmore, CA
----------------------------12: Robin Raynee Roberts 1-9-1968 CA
--------------------------------Ted Vincent Hale 12-9-1969
--------------------------------13: Cori Christine Hale 6-17-1995
--------------------------------13: Daniel Moore Hale 9-26-1997
----------------------------12: Larry Allen Roberts 1-14-1969 CA
------------------------11: Diann Ruth Roberts 8-11-1941 Zion, IL
----------------------------Kenneth Eugene Holverson 4-16-1940 Zion, IL
----------------------------12: Kenneth Erik Holverson 2-13-1972 Waukegan, IL
----------------------------12: Mark Edward Holverson 9-18-1973 Waukegan, IL
--------------------------------Diane Marie Yarc 7-7-1972
--------------------------------13: Shawn Robert Holverson 9-2-1998 Chicago, IL
------------------------11: Wilbur Lee Roberts 3-27-1943 Zion, IL
----------------------------Deanna Therese Deschryver 12-17-1940
----------------------------12: Stacy Carol Roberts 11-24-1970 Waukegan, IL
----------------------------12: Jennifer Sarah Roberts 10-3-1973 Waukegan, IL
--------------------------------1st. Todd Raymond Richardson 9-27-1966
------------------------2nd husband of Ruby Sarah Enlow: John Miljkovick
--------------------10: Rachel Olive Enlow 12-9-1921 Zion, IL
------------------------1st. Wallace Roland Wickersheim 1-27-1911-- 1951
------------------------2nd. Henry Kuxhausen Apr. 15 Rosenberg, Russia
------------------------11: Marlin Dean Wickersheim 9-18-1939 Zion, IL
----------------------------Jacqueline Marie Shaner 7-22-1942
----------------------------12: Todd Dean Kuxhausen 1-15-1962 Scottsbluff, NE
--------------------------------Nancy Rae Mueller 12-15-1962 Hiawatha, KS
--------------------------------13: Bradley Dean Kuxhausen 9-3-1988 Omaha, NE
--------------------------------13: Brett Jacob Kuxhausen 9-20-1989 Omaha, NE
----------------------------12: Monte Lynn Kuxhausen 10-24-1963 Scottsbluff, NE
--------------------------------Stacy Lee Sitorius 11-9-1965 Fort Collins, CO
----------------------------12: Dayna Marie Kuxhausen 11-3-1965 Gothenburg, NE
--------------------------------Arnold Joseph Miller 11-2-1965 Superior, NE
----------------------------12: Betsy Rae Kuxhausen 4-1-1969 Gothenburg, NE
--------------------------------Dan Morrissey 1-20-1957 Council Bluffs, IA
------------------------11: Ronald Dale Kuxhausen 10-16-1942 Zion, IL
----------------------------Shirley Jean Sherich 7-29-1942 Lodgepole, NE
----------------------------12: Michael Wayne Kuxhausen 12-21-1963 Scottsbluff, NE
--------------------------------Debra Jean Johnson 10-27-1961 Renton, WA
--------------------------------13: Kristina Andrea Mae Kuxhausen 1-6-1992 Seattle, WA
--------------------------------13: Erikka Marie Kuxhausen 1-17-1994 Seattle, WA
----------------------------12: Dawn Rana Kuxhausen 3-18-1966 Scottsbluff, NE
--------------------------------13: Rachel Nicole Kuxhausen 1-19-1989 Seattle, WA (Father; Gary Urvina)
--------------------------------1st. husband of Dawn Rana Kuxhausen; Dale Harlan Groven 1-6-1965 Tacoma, WA
--------------------------------13: Whitney Jean Groven 2-10-1993 Seattle, WA
--------------------------------2nd husband of Dawn Rana Kuxhausen: Lonnie G. Morford 6-30-1959 Seattle, WA
--------------------10: Joan Charlotte "Jo" Enlow 2-24-1924 Zion, IL
------------------------Chester Norris "Chet" Ray, 8-7-1920 Zion, IL
------------------------11: Frank Wesley Ray 5-15-1942 Waukegan, IL
----------------------------Sandra Anne Wellskopf 1-31-1949 Greenfield, WI
----------------------------12: Matthew Jason Ray 1-13-1972
----------------------------12: Jacob Isreal Ray 10-22-1974
----------------------------12: Abraham Isaac Ray 2-1-1977
----------------------------12: Josiah Nathaniel Ray 8-28-1984
----------------------------12: Promise Elizabeth Ray 10-7-1986
----------------------------12: Seth Adam Ray 3-9-1989
----------------------------12: Cherity Rose Ray 3-24-1991
----------------------------12: Merci Racquel Ray 4-10-1993
------------------------11: SuzAnne "Sue" Ray 1-6-1947 Waukegan, IL
----------------------------Dennis Paul Halbmaier 1-10-1940 Elgin, IL
----------------------------12: Jonathan David "Jon" Halbmaier 7-6-1968
--------------------------------Jeanna Ann Hugh  
--------------------------------13: Elizabeth Ashley Halbmaier 1992
--------------------------------13: Zachery Anthony Thomas Halbmaier 1994
----------------------------12: Jeffrey Scott Halbmaier 1-9-1971
----------------------------12: Jerry Benjamin Halbmaier 10-27-1972
--------------------------------Regina Mae Hazlerig
----------------------------12: Jason Paul Halbmaier 2-22-1975  
--------------------------------Tanya Layne Huberty  
------------------------11: Cherith "Cheri" Anne Ray 6-18-1961 Neenah, WI
----------------------------William Robert Welter, 8-25-1953 Milwaukee, WI
----------------------------12: Dean Alexander Welter 1-24-1981 Oban Gen. Hosp., Argyll, Scotland
----------------------------12: Eric Nathan Welter 4-27-1982 Roosevelt Roads Naval Hospital, Peurto Rico
----------------------------12: Julie Mary Anne Welter 6-9-1983 Oban Gen. Hosp., Argyll, Scotland
----------------------------12: Jessica Anne Welter 10-1-1988 Rankin Mem. Hosp., Greenock, Argyll, Scotland
--------------------10: Howard Wesley Enlow 2-21-1932  Zion, IL
------------------------Janet Speak 12-22-1936 Rose Hill, VA
------------------------11: Bryan Wesley Enlow 3-8-1960 Waukegan, IL
------------------------11: David Lyle Enlow 3-14-1963 Waukegan, IL
----------------9: Harriet Sophia Enlow 7-13-1896 Sang Run, MD
--------------------Harry Brock Fredrickson 6-4-1892 Webster City, IA
--------------------10: Elwood Harry "Freddy" Fredrickson, 10-8-1917 Zion, IL
------------------------Dorothy Jane Marshman, 7-15-1924 Deposit, NY
------------------------11: William E. Fredrickson, Ph.D. 12-28-1956 Norwich, NY
----------------------------1st. Julie Marie Ruck 7-14-1956 Columbus, OH
----------------------------2nd. Suzanne Rita Byrnes, Ph.D. 11-5-1958 Ottawa, Ontario, Canada
----------------------------12: Mathieu Clifford Fredrickson 9-14-1996 Kansas City, MO
------------------------11: Dorothy Helen Fredrickson 4-21-1960 Norwich, Chenango Co.
--------------------10: Alta Harriet Fredrickson 7-6-1919 Zion, IL
------------------------Richard Louis Fowler, Sr. 8-2-1914 Yonkers, NY
------------------------11: Richard Louis Fowler, Jr., L. P. N., 11-27-1946 Yonkers, NY
----------------------------1st. Katherine Gross  
----------------------------2nd. Jacquelyn Ruth (Hill) Mullins 6-14-1944
----------------------------3rd. Myriam Isabel Collazo, R. N. 1-14-1949 Havana, Cuba
------------------------11:  Jeffrey Harry Fowler, R. N., 9-7-1950 Baltimore City, MD
----------------------------1st. Marguerite Iverson, R. N. 5-26-1950 Baltimore City, MD
----------------------------12: Laura Marie Virginia Harriet Fowler 12-1-1976 Baltimore City, MD
--------------------------------Gregory Charles Myers 6-15-1966
--------------------------------13: Haley Marie Myers 1-11-1999 Baltimore City, MD
----------------------------12: Karen Michelle Harriet Virginia Fowler 1-4-1980 Baltimore City, MD
----------------------------12: Jennifer Maureen Fowler 4-3-1981 Baltimore City, MD
----------------------------2nd wife of Jeffrey Harry Fowler; Deborah Lynn Origer, R. N. 10-7-1956 Dayton, OH
------------------------11: Audrey Alta Fowler 8-20-1958 Baltimore City, MD
----------------------------John Robert Clough III 7-2-1957
----------------------------12: Joshua Lee Richard Fowler 9-28-1985 Lewisburg, PA
--------------------10: Clair Enlow Fredrickson, 3-13-1926 Zion, IL
------------------------Emma Thersa Tropea 11-3-1925 Monroe, NY
------------8: Sarah Jane Savage 1854 MD.
----------------Elijah Hoye 4-10-1846 MD.  -- 1937
----------------9: Ora May Hoye 11-12-1878 Sang Run, MD.
--------------------George D. Liming
----------------9: Sarah Jane Hoye 11-24-1880 Sang Run
--------------------Franklin Thomas Frantz
--------------------10: Geoffrey Elwood Frantz 7-4-1906
--------------------10: Ellen Mae Frantz 5-3-1923 Sang Run
------------------------Gilbert Bruce Enlow (For linage see Gilbert Bruce Enlow of Lyman Sedwick Enlow, Gen. #5).
------------8: Lucretia Preston Savage OR Lucretia Almeda Savage 1856/57 (IMPORTANT! Jim Friend lists Lucretia as, Preston while Fowler lists her as, Almeda. See
note at Lucretia Savage, daughter of Ezra Savage, Gen. #3).
----------------George Washington Moon 1857
----------------9: Gilbert Moon Oct. 1886
----------------9: Harold Moon Jun 1888
----------------9: Russell Moon 7-24-1892
----------------9: Maynard Moon 5-1-1900
--------------------Leona Elizabeth Bernard 3-15-1908
------------8: Benton Bruce Savage Aug. 1859 Sang Run, MD.
------------8: John M. Savage 12-21-1861
------------8: Emma J. or Elizabeth Savage 9-4-1864
----------------William A. Smith 1861
----------------9: Daniel F. Smith Feb. 1891
----------------9: Minnie A. Smith Nov. 1892
----------------9: William G. Smith Oct. 1898
----------------9: Aubrey F. Smith
------------8: Delphine “Della” Americus Savage Jun. 1867
------------8: Maude (Esmanilda?) Savage 1870/71 Sang Run
----------------Herbert Ferguson abt 1869
------------8: Musetta “Zettie” Price Savage 1876 Sang Run
------------8: Hallie G. Savage 11-4-1878
----------------Charles Edward Hoye, Capt. S.A.W. WW 1, b. 10-21-1876 Sang Run -- 1951
----------------9: Carlotta Hoye 11-21-1903 San Mateo, P. Islands
----------------9: William Rodney Hoye 6-2-1908 Albay, P. Islands
--------------------Blanche V. Scott
--------------------10: Charles Edward Hoye 6-8-1939 Phoenix, AZ
--------------------10: Hallie Vivian Hoye 6-24-1940 Phoenix, AZ
----------------9: Edward Buel Hoye 4-7-1910 Santa Monica, CA
---------7: Emma Savage      
----6th. Nancy Savage  1803 Al. Co. – 10-20-1880, age 77 yrs., 5 mos., 5 days. Married 1823. Int. in Lenox cemetery.
-----------William Kelly  1796 Cumberland, MD.
---------7. Alfred Kelly
---------7. Charlotte Kelly
-------------Freeman Smith
---------7. Ezra Kelly
---------7. Elizabeth Ann Kelly b. Preston Co. WV – d. Hazelton, Pres. Co. WV
-------------Jackson P. Rodeheaver
------------8. Hosea Rodeheaver
----------------Mary Emmaline Van Sicle
----------------9. Haman Rodeheaver
--------------------Ada Myrtle Reckart
--------------------10. Lottie June Rodeheaver
-------------------------_____ White
-------------------------11. Gary L. White
---------7. John T. Kelly
-------------Martha Rodeheaver
---------7. Louisa Kelly
---------7. William H. Kelly
----6. Amos Savage  born between 1800 and 1810 died before 1850 (This is probably the individual shown by some researchers as, Brewston or Brewston Amos Savage.
See my narrative on Brewston Savage in the data following this chart.
-------- Wife is probably Carherine Casteel
----6. Female between 1806 & 1810
----6. Female between 1810 & 1820 (It’s probable this is the Mary, born 1811, who married David Kent).

----------------------------------------------------------------------------------------------------------------------------------------------------------------
----------------------------------------------------------------------------------------------------------------------------------------------------------------

Contributors: The following “Cuzzins” have generously contributed to the above family information. If you find one of them in your particular line you may want to
contact them as they may be able to supply you more specific information. If one would want to contact any of these contributors please contact me for an address. If
unable to contact me at the above address, my current address and phone number are available at; savageancestry.com

Barbara E. Custer Vaillancourt
Barbara Lydzinski
Beth; <mmonroe37@erols.com>)
Brenda Clark - Albright, WV
Caprice Johnson Arenth
Charlotte Ann Potter
Dani Griffin
Deborah Savage
Erica Sisler
Faye O‘Riley:
Florence Arlene Nicklow Elliott
Gail Savage Bowser
Gary White
Icia Wolfe
Ina Hicks
James A. Friend
Jeanette Detrich
Jennifer Wilson
Joyce Glover
Judy Kay Thompson Peace
Kathy Lou Piper Balmer
Lisa Mae Savage Hack
Melinda Dawn Frazee
Melvin Fike
Michael G. Nahaj Jr.
Nancy L. Paugh Yob
Regina Rapacon
Richard McFarland
Rita Brant Diethorn
Robert Daniel “Rob” Tomcanin
Ron Sands
Roselyn Ratliff Listernick
Shelley Missimer
Theresa R. Bonetti
Connie L. Savage Simmons
Debra Goetz

-----------------------------------------------------------------------------------------------------------------------------------------------------------  

By:

R. Blair Savage
157 Shadowleaf Dr., Hendersonville, NC  28739

828-808-3749       rbsavage1@gmail.com
This work was initiated on
9-27-2000 and is periodically
updated. The last update was;
9-15-05. 1-12-06. 5-27-06.
6-28-08. 7-24-08. 9-9-08.
9-27-08. 3-1-2009. 4-2-2010.
6-23-2010, 9-12-2010, 2-3-2011,
2-17-2011, 4-30-2011, 4-3-2012,
9-11-2013, 10-4-2013, 1-4-2014,
5-18-2015
, 6-22-2015

Robinson T. Savage, Sr. was the first
school teacher in Western Maryland

Robinson was a Sergeant in the War of 1812

    Robinson owned the first cast
    iron cook stove in Garrett
    County.
This link will take you to various data
that supplements this chart.    >>>>>>>